ISO-10303-21;
HEADER;
FILE_DESCRIPTION( ( '' ), '1' );
FILE_NAME( '//se01002/users/anro/AGRU_3M705031511_PE-RC_Mineline_II_Mineline_II_Rohr_5m_315X28_6__SDR11__ISO_S-5_05.stp', '2017-12-12T08:20:38', ( '' ), ( '' ), ' ', ' ', ' ' );
FILE_SCHEMA( ( 'automotive_design' ) );
ENDSEC;
DATA;
#1 = MECHANICAL_DESIGN_GEOMETRIC_PRESENTATION_REPRESENTATION( ' ', ( #10, #11, #12, #13, #14, #15, #16, #17, #18, #19, #20, #21, #22, #23, #24, #25, #26, #27, #28, #29, #30, #31, #32, #33, #34, #35, #36 ), #6 );
#2 = PRODUCT_DEFINITION_CONTEXT( '', #37, 'design' );
#3 = APPLICATION_PROTOCOL_DEFINITION( 'INTERNATIONAL STANDARD', 'automotive_design', 1994, #37 );
#4 = PRODUCT_CATEGORY_RELATIONSHIP( 'NONE', 'NONE', #38, #39 );
#5 = SHAPE_DEFINITION_REPRESENTATION( #40, #41 );
#6 =  ( GEOMETRIC_REPRESENTATION_CONTEXT( 3 )GLOBAL_UNCERTAINTY_ASSIGNED_CONTEXT( ( #44 ) )GLOBAL_UNIT_ASSIGNED_CONTEXT( ( #46, #47, #48 ) )REPRESENTATION_CONTEXT( 'NONE', 'WORKSPACE' ) );
#10 = STYLED_ITEM( '', ( #50 ), #51 );
#11 = STYLED_ITEM( '', ( #52 ), #53 );
#12 = STYLED_ITEM( '', ( #54 ), #55 );
#13 = STYLED_ITEM( '', ( #56 ), #57 );
#14 = STYLED_ITEM( '', ( #58 ), #59 );
#15 = STYLED_ITEM( '', ( #60 ), #61 );
#16 = STYLED_ITEM( '', ( #62 ), #63 );
#17 = STYLED_ITEM( '', ( #64 ), #65 );
#18 = STYLED_ITEM( '', ( #66 ), #67 );
#19 = STYLED_ITEM( '', ( #68 ), #69 );
#20 = STYLED_ITEM( '', ( #70 ), #71 );
#21 = STYLED_ITEM( '', ( #72 ), #73 );
#22 = STYLED_ITEM( '', ( #74 ), #75 );
#23 = STYLED_ITEM( '', ( #76 ), #77 );
#24 = STYLED_ITEM( '', ( #78 ), #79 );
#25 = STYLED_ITEM( '', ( #80 ), #81 );
#26 = STYLED_ITEM( '', ( #82 ), #83 );
#27 = STYLED_ITEM( '', ( #84 ), #85 );
#28 = STYLED_ITEM( '', ( #86 ), #87 );
#29 = STYLED_ITEM( '', ( #88 ), #89 );
#30 = STYLED_ITEM( '', ( #90 ), #91 );
#31 = STYLED_ITEM( '', ( #92 ), #93 );
#32 = STYLED_ITEM( '', ( #94 ), #95 );
#33 = STYLED_ITEM( '', ( #96 ), #97 );
#34 = STYLED_ITEM( '', ( #98 ), #99 );
#35 = STYLED_ITEM( '', ( #100 ), #101 );
#36 = STYLED_ITEM( '', ( #102 ), #103 );
#37 = APPLICATION_CONTEXT( ' ' );
#38 = PRODUCT_CATEGORY( 'part', 'NONE' );
#39 = PRODUCT_RELATED_PRODUCT_CATEGORY( 'detail', ' ', ( #104 ) );
#40 = PRODUCT_DEFINITION_SHAPE( 'NONE', 'NONE', #105 );
#41 = ADVANCED_BREP_SHAPE_REPRESENTATION( '1', ( #73, #106 ), #6 );
#44 = UNCERTAINTY_MEASURE_WITH_UNIT( LENGTH_MEASURE( 1.00000000000000E-006 ), #46, '', '' );
#46 =  ( CONVERSION_BASED_UNIT( 'MILLIMETRE', #109 )LENGTH_UNIT(  )NAMED_UNIT( #112 ) );
#47 =  ( NAMED_UNIT( #114 )PLANE_ANGLE_UNIT(  )SI_UNIT( $, .RADIAN. ) );
#48 =  ( NAMED_UNIT( #114 )SOLID_ANGLE_UNIT(  )SI_UNIT( $, .STERADIAN. ) );
#50 = PRESENTATION_STYLE_ASSIGNMENT( ( #120 ) );
#51 = ADVANCED_FACE( '', ( #121 ), #122, .F. );
#52 = PRESENTATION_STYLE_ASSIGNMENT( ( #123 ) );
#53 = EDGE_CURVE( '', #79, #93, #124, .T. );
#54 = PRESENTATION_STYLE_ASSIGNMENT( ( #125 ) );
#55 = ADVANCED_FACE( '', ( #126 ), #127, .F. );
#56 = PRESENTATION_STYLE_ASSIGNMENT( ( #128 ) );
#57 = VERTEX_POINT( '', #129 );
#58 = PRESENTATION_STYLE_ASSIGNMENT( ( #130 ) );
#59 = EDGE_CURVE( '', #79, #65, #131, .T. );
#60 = PRESENTATION_STYLE_ASSIGNMENT( ( #132 ) );
#61 = VERTEX_POINT( '', #133 );
#62 = PRESENTATION_STYLE_ASSIGNMENT( ( #134 ) );
#63 = EDGE_CURVE( '', #91, #65, #135, .T. );
#64 = PRESENTATION_STYLE_ASSIGNMENT( ( #136 ) );
#65 = VERTEX_POINT( '', #137 );
#66 = PRESENTATION_STYLE_ASSIGNMENT( ( #138 ) );
#67 = ADVANCED_FACE( '', ( #139 ), #140, .T. );
#68 = PRESENTATION_STYLE_ASSIGNMENT( ( #141 ) );
#69 = EDGE_CURVE( '', #61, #77, #142, .T. );
#70 = PRESENTATION_STYLE_ASSIGNMENT( ( #143 ) );
#71 = EDGE_CURVE( '', #93, #79, #144, .T. );
#72 = PRESENTATION_STYLE_ASSIGNMENT( ( #145 ) );
#73 = MANIFOLD_SOLID_BREP( '1', #146 );
#74 = PRESENTATION_STYLE_ASSIGNMENT( ( #147 ) );
#75 = VERTEX_POINT( '', #148 );
#76 = PRESENTATION_STYLE_ASSIGNMENT( ( #149 ) );
#77 = VERTEX_POINT( '', #150 );
#78 = PRESENTATION_STYLE_ASSIGNMENT( ( #151 ) );
#79 = VERTEX_POINT( '', #152 );
#80 = PRESENTATION_STYLE_ASSIGNMENT( ( #153 ) );
#81 = EDGE_CURVE( '', #57, #75, #154, .T. );
#82 = PRESENTATION_STYLE_ASSIGNMENT( ( #155 ) );
#83 = EDGE_CURVE( '', #91, #93, #156, .T. );
#84 = PRESENTATION_STYLE_ASSIGNMENT( ( #157 ) );
#85 = EDGE_CURVE( '', #75, #57, #158, .T. );
#86 = PRESENTATION_STYLE_ASSIGNMENT( ( #159 ) );
#87 = EDGE_CURVE( '', #61, #75, #160, .T. );
#88 = PRESENTATION_STYLE_ASSIGNMENT( ( #161 ) );
#89 = EDGE_CURVE( '', #57, #77, #162, .T. );
#90 = PRESENTATION_STYLE_ASSIGNMENT( ( #163 ) );
#91 = VERTEX_POINT( '', #164 );
#92 = PRESENTATION_STYLE_ASSIGNMENT( ( #165 ) );
#93 = VERTEX_POINT( '', #166 );
#94 = PRESENTATION_STYLE_ASSIGNMENT( ( #167 ) );
#95 = ADVANCED_FACE( '', ( #168, #169 ), #170, .T. );
#96 = PRESENTATION_STYLE_ASSIGNMENT( ( #171 ) );
#97 = EDGE_CURVE( '', #65, #91, #172, .T. );
#98 = PRESENTATION_STYLE_ASSIGNMENT( ( #173 ) );
#99 = ADVANCED_FACE( '', ( #174 ), #175, .T. );
#100 = PRESENTATION_STYLE_ASSIGNMENT( ( #176 ) );
#101 = ADVANCED_FACE( '', ( #177, #178 ), #179, .F. );
#102 = PRESENTATION_STYLE_ASSIGNMENT( ( #180 ) );
#103 = EDGE_CURVE( '', #77, #61, #181, .T. );
#104 = PRODUCT( '1', '1', 'PART-1-DESC', ( #182 ) );
#105 = PRODUCT_DEFINITION( 'NONE', 'NONE', #183, #2 );
#106 = AXIS2_PLACEMENT_3D( '', #184, #185, #186 );
#109 = LENGTH_MEASURE_WITH_UNIT( LENGTH_MEASURE( 1.00000000000000 ), #187 );
#112 = DIMENSIONAL_EXPONENTS( 1.00000000000000, 0.000000000000000, 0.000000000000000, 0.000000000000000, 0.000000000000000, 0.000000000000000, 0.000000000000000 );
#114 = DIMENSIONAL_EXPONENTS( 0.000000000000000, 0.000000000000000, 0.000000000000000, 0.000000000000000, 0.000000000000000, 0.000000000000000, 0.000000000000000 );
#120 = SURFACE_STYLE_USAGE( .BOTH., #188 );
#121 = FACE_OUTER_BOUND( '', #189, .T. );
#122 = CYLINDRICAL_SURFACE( '', #190, 128.900000000000 );
#123 = CURVE_STYLE( '', #191, POSITIVE_LENGTH_MEASURE( 1.00000000000000E-006 ), #192 );
#124 = CIRCLE( '', #193, 157.500000000000 );
#125 = SURFACE_STYLE_USAGE( .BOTH., #194 );
#126 = FACE_OUTER_BOUND( '', #195, .T. );
#127 = CYLINDRICAL_SURFACE( '', #196, 128.900000000000 );
#128 = POINT_STYLE( ' ', #197, POSITIVE_LENGTH_MEASURE( 1.00000000000000E-006 ), #198 );
#129 = CARTESIAN_POINT( '', ( 0.000000000000000, 0.000000000000000, -128.900000000000 ) );
#130 = CURVE_STYLE( '', #199, POSITIVE_LENGTH_MEASURE( 1.00000000000000E-006 ), #200 );
#131 = LINE( '', #201, #202 );
#132 = POINT_STYLE( ' ', #203, POSITIVE_LENGTH_MEASURE( 1.00000000000000E-006 ), #204 );
#133 = CARTESIAN_POINT( '', ( 5000.00000000000, 1.57851759007704E-014, 128.900000000000 ) );
#134 = CURVE_STYLE( '', #205, POSITIVE_LENGTH_MEASURE( 1.00000000000000E-006 ), #206 );
#135 = CIRCLE( '', #207, 157.500000000000 );
#136 = POINT_STYLE( ' ', #208, POSITIVE_LENGTH_MEASURE( 1.00000000000000E-006 ), #209 );
#137 = CARTESIAN_POINT( '', ( 0.000000000000000, 1.92875500727024E-014, 157.500000000000 ) );
#138 = SURFACE_STYLE_USAGE( .BOTH., #210 );
#139 = FACE_OUTER_BOUND( '', #211, .T. );
#140 = CYLINDRICAL_SURFACE( '', #212, 157.500000000000 );
#141 = CURVE_STYLE( '', #213, POSITIVE_LENGTH_MEASURE( 1.00000000000000E-006 ), #214 );
#142 = CIRCLE( '', #215, 128.900000000000 );
#143 = CURVE_STYLE( '', #216, POSITIVE_LENGTH_MEASURE( 1.00000000000000E-006 ), #217 );
#144 = CIRCLE( '', #218, 157.500000000000 );
#145 = SURFACE_STYLE_USAGE( .BOTH., #219 );
#146 = CLOSED_SHELL( '', ( #67, #51, #55, #99, #95, #101 ) );
#147 = POINT_STYLE( ' ', #220, POSITIVE_LENGTH_MEASURE( 1.00000000000000E-006 ), #221 );
#148 = CARTESIAN_POINT( '', ( 0.000000000000000, 1.57851759007704E-014, 128.900000000000 ) );
#149 = POINT_STYLE( ' ', #222, POSITIVE_LENGTH_MEASURE( 1.00000000000000E-006 ), #223 );
#150 = CARTESIAN_POINT( '', ( 5000.00000000000, 0.000000000000000, -128.900000000000 ) );
#151 = POINT_STYLE( ' ', #224, POSITIVE_LENGTH_MEASURE( 1.00000000000000E-006 ), #225 );
#152 = CARTESIAN_POINT( '', ( 5000.00000000000, 1.92875500727024E-014, 157.500000000000 ) );
#153 = CURVE_STYLE( '', #226, POSITIVE_LENGTH_MEASURE( 1.00000000000000E-006 ), #227 );
#154 = CIRCLE( '', #228, 128.900000000000 );
#155 = CURVE_STYLE( '', #229, POSITIVE_LENGTH_MEASURE( 1.00000000000000E-006 ), #230 );
#156 = LINE( '', #231, #232 );
#157 = CURVE_STYLE( '', #233, POSITIVE_LENGTH_MEASURE( 1.00000000000000E-006 ), #234 );
#158 = CIRCLE( '', #235, 128.900000000000 );
#159 = CURVE_STYLE( '', #236, POSITIVE_LENGTH_MEASURE( 1.00000000000000E-006 ), #237 );
#160 = LINE( '', #238, #239 );
#161 = CURVE_STYLE( '', #240, POSITIVE_LENGTH_MEASURE( 1.00000000000000E-006 ), #241 );
#162 = LINE( '', #242, #243 );
#163 = POINT_STYLE( ' ', #244, POSITIVE_LENGTH_MEASURE( 1.00000000000000E-006 ), #245 );
#164 = CARTESIAN_POINT( '', ( 0.000000000000000, 0.000000000000000, -157.500000000000 ) );
#165 = POINT_STYLE( ' ', #246, POSITIVE_LENGTH_MEASURE( 1.00000000000000E-006 ), #247 );
#166 = CARTESIAN_POINT( '', ( 5000.00000000000, 0.000000000000000, -157.500000000000 ) );
#167 = SURFACE_STYLE_USAGE( .BOTH., #248 );
#168 = FACE_OUTER_BOUND( '', #249, .T. );
#169 = FACE_BOUND( '', #250, .T. );
#170 = PLANE( '', #251 );
#171 = CURVE_STYLE( '', #252, POSITIVE_LENGTH_MEASURE( 1.00000000000000E-006 ), #253 );
#172 = CIRCLE( '', #254, 157.500000000000 );
#173 = SURFACE_STYLE_USAGE( .BOTH., #255 );
#174 = FACE_OUTER_BOUND( '', #256, .T. );
#175 = CYLINDRICAL_SURFACE( '', #257, 157.500000000000 );
#176 = SURFACE_STYLE_USAGE( .BOTH., #258 );
#177 = FACE_OUTER_BOUND( '', #259, .T. );
#178 = FACE_BOUND( '', #260, .T. );
#179 = PLANE( '', #261 );
#180 = CURVE_STYLE( '', #262, POSITIVE_LENGTH_MEASURE( 1.00000000000000E-006 ), #263 );
#181 = CIRCLE( '', #264, 128.900000000000 );
#182 = PRODUCT_CONTEXT( '', #37, 'mechanical' );
#183 = PRODUCT_DEFINITION_FORMATION_WITH_SPECIFIED_SOURCE( ' ', 'NONE', #104, .NOT_KNOWN. );
#184 = CARTESIAN_POINT( '', ( 0.000000000000000, 0.000000000000000, 0.000000000000000 ) );
#185 = DIRECTION( '', ( 0.000000000000000, 0.000000000000000, 1.00000000000000 ) );
#186 = DIRECTION( '', ( 1.00000000000000, 0.000000000000000, 0.000000000000000 ) );
#187 =  ( NAMED_UNIT( #112 )LENGTH_UNIT(  )SI_UNIT( .MILLI., .METRE. ) );
#188 = SURFACE_SIDE_STYLE( '', ( #266 ) );
#189 = EDGE_LOOP( '', ( #267, #268, #269, #270 ) );
#190 = AXIS2_PLACEMENT_3D( '', #271, #272, #273 );
#191 = DRAUGHTING_PRE_DEFINED_CURVE_FONT( 'continuous' );
#192 = COLOUR_RGB( '', 0.689999997615810, 0.689999997615810, 0.689999997615810 );
#193 = AXIS2_PLACEMENT_3D( '', #274, #275, #276 );
#194 = SURFACE_SIDE_STYLE( '', ( #277 ) );
#195 = EDGE_LOOP( '', ( #278, #279, #280, #281 ) );
#196 = AXIS2_PLACEMENT_3D( '', #282, #283, #284 );
#197 = PRE_DEFINED_MARKER( '' );
#198 = COLOUR_RGB( '', 0.689999997615810, 0.689999997615810, 0.689999997615810 );
#199 = DRAUGHTING_PRE_DEFINED_CURVE_FONT( 'continuous' );
#200 = COLOUR_RGB( '', 0.689999997615810, 0.689999997615810, 0.689999997615810 );
#201 = CARTESIAN_POINT( '', ( 0.000000000000000, 1.92875500727024E-014, 157.500000000000 ) );
#202 = VECTOR( '', #285, 1.00000000000000 );
#203 = PRE_DEFINED_MARKER( '' );
#204 = COLOUR_RGB( '', 0.689999997615810, 0.689999997615810, 0.689999997615810 );
#205 = DRAUGHTING_PRE_DEFINED_CURVE_FONT( 'continuous' );
#206 = COLOUR_RGB( '', 0.689999997615810, 0.689999997615810, 0.689999997615810 );
#207 = AXIS2_PLACEMENT_3D( '', #286, #287, #288 );
#208 = PRE_DEFINED_MARKER( '' );
#209 = COLOUR_RGB( '', 0.689999997615810, 0.689999997615810, 0.689999997615810 );
#210 = SURFACE_SIDE_STYLE( '', ( #289 ) );
#211 = EDGE_LOOP( '', ( #290, #291, #292, #293 ) );
#212 = AXIS2_PLACEMENT_3D( '', #294, #295, #296 );
#213 = DRAUGHTING_PRE_DEFINED_CURVE_FONT( 'continuous' );
#214 = COLOUR_RGB( '', 0.689999997615810, 0.689999997615810, 0.689999997615810 );
#215 = AXIS2_PLACEMENT_3D( '', #297, #298, #299 );
#216 = DRAUGHTING_PRE_DEFINED_CURVE_FONT( 'continuous' );
#217 = COLOUR_RGB( '', 0.689999997615810, 0.689999997615810, 0.689999997615810 );
#218 = AXIS2_PLACEMENT_3D( '', #300, #301, #302 );
#219 = SURFACE_SIDE_STYLE( '', ( #303 ) );
#220 = PRE_DEFINED_MARKER( '' );
#221 = COLOUR_RGB( '', 0.689999997615810, 0.689999997615810, 0.689999997615810 );
#222 = PRE_DEFINED_MARKER( '' );
#223 = COLOUR_RGB( '', 0.689999997615810, 0.689999997615810, 0.689999997615810 );
#224 = PRE_DEFINED_MARKER( '' );
#225 = COLOUR_RGB( '', 0.689999997615810, 0.689999997615810, 0.689999997615810 );
#226 = DRAUGHTING_PRE_DEFINED_CURVE_FONT( 'continuous' );
#227 = COLOUR_RGB( '', 0.689999997615810, 0.689999997615810, 0.689999997615810 );
#228 = AXIS2_PLACEMENT_3D( '', #304, #305, #306 );
#229 = DRAUGHTING_PRE_DEFINED_CURVE_FONT( 'continuous' );
#230 = COLOUR_RGB( '', 0.689999997615810, 0.689999997615810, 0.689999997615810 );
#231 = CARTESIAN_POINT( '', ( 0.000000000000000, -1.92875500727024E-014, -157.500000000000 ) );
#232 = VECTOR( '', #307, 1.00000000000000 );
#233 = DRAUGHTING_PRE_DEFINED_CURVE_FONT( 'continuous' );
#234 = COLOUR_RGB( '', 0.689999997615810, 0.689999997615810, 0.689999997615810 );
#235 = AXIS2_PLACEMENT_3D( '', #308, #309, #310 );
#236 = DRAUGHTING_PRE_DEFINED_CURVE_FONT( 'continuous' );
#237 = COLOUR_RGB( '', 0.689999997615810, 0.689999997615810, 0.689999997615810 );
#238 = CARTESIAN_POINT( '', ( 0.000000000000000, 1.57851759007704E-014, 128.900000000000 ) );
#239 = VECTOR( '', #311, 1.00000000000000 );
#240 = DRAUGHTING_PRE_DEFINED_CURVE_FONT( 'continuous' );
#241 = COLOUR_RGB( '', 0.689999997615810, 0.689999997615810, 0.689999997615810 );
#242 = CARTESIAN_POINT( '', ( 0.000000000000000, -1.57851759007704E-014, -128.900000000000 ) );
#243 = VECTOR( '', #312, 1.00000000000000 );
#244 = PRE_DEFINED_MARKER( '' );
#245 = COLOUR_RGB( '', 0.689999997615810, 0.689999997615810, 0.689999997615810 );
#246 = PRE_DEFINED_MARKER( '' );
#247 = COLOUR_RGB( '', 0.689999997615810, 0.689999997615810, 0.689999997615810 );
#248 = SURFACE_SIDE_STYLE( '', ( #313 ) );
#249 = EDGE_LOOP( '', ( #314, #315 ) );
#250 = EDGE_LOOP( '', ( #316, #317 ) );
#251 = AXIS2_PLACEMENT_3D( '', #318, #319, #320 );
#252 = DRAUGHTING_PRE_DEFINED_CURVE_FONT( 'continuous' );
#253 = COLOUR_RGB( '', 0.689999997615810, 0.689999997615810, 0.689999997615810 );
#254 = AXIS2_PLACEMENT_3D( '', #321, #322, #323 );
#255 = SURFACE_SIDE_STYLE( '', ( #324 ) );
#256 = EDGE_LOOP( '', ( #325, #326, #327, #328 ) );
#257 = AXIS2_PLACEMENT_3D( '', #329, #330, #331 );
#258 = SURFACE_SIDE_STYLE( '', ( #332 ) );
#259 = EDGE_LOOP( '', ( #333, #334 ) );
#260 = EDGE_LOOP( '', ( #335, #336 ) );
#261 = AXIS2_PLACEMENT_3D( '', #337, #338, #339 );
#262 = DRAUGHTING_PRE_DEFINED_CURVE_FONT( 'continuous' );
#263 = COLOUR_RGB( '', 0.689999997615810, 0.689999997615810, 0.689999997615810 );
#264 = AXIS2_PLACEMENT_3D( '', #340, #341, #342 );
#266 = SURFACE_STYLE_FILL_AREA( #343 );
#267 = ORIENTED_EDGE( '', *, *, #89, .F. );
#268 = ORIENTED_EDGE( '', *, *, #85, .F. );
#269 = ORIENTED_EDGE( '', *, *, #87, .F. );
#270 = ORIENTED_EDGE( '', *, *, #69, .T. );
#271 = CARTESIAN_POINT( '', ( 0.000000000000000, 0.000000000000000, 0.000000000000000 ) );
#272 = DIRECTION( '', ( -1.00000000000000, -0.000000000000000, -0.000000000000000 ) );
#273 = DIRECTION( '', ( 0.000000000000000, 0.000000000000000, -1.00000000000000 ) );
#274 = CARTESIAN_POINT( '', ( 5000.00000000000, 0.000000000000000, 0.000000000000000 ) );
#275 = DIRECTION( '', ( -1.00000000000000, 0.000000000000000, 0.000000000000000 ) );
#276 = DIRECTION( '', ( 0.000000000000000, 0.000000000000000, -1.00000000000000 ) );
#277 = SURFACE_STYLE_FILL_AREA( #344 );
#278 = ORIENTED_EDGE( '', *, *, #89, .T. );
#279 = ORIENTED_EDGE( '', *, *, #103, .T. );
#280 = ORIENTED_EDGE( '', *, *, #87, .T. );
#281 = ORIENTED_EDGE( '', *, *, #81, .F. );
#282 = CARTESIAN_POINT( '', ( 0.000000000000000, 0.000000000000000, 0.000000000000000 ) );
#283 = DIRECTION( '', ( -1.00000000000000, -0.000000000000000, -0.000000000000000 ) );
#284 = DIRECTION( '', ( 0.000000000000000, 0.000000000000000, -1.00000000000000 ) );
#285 = DIRECTION( '', ( -1.00000000000000, -0.000000000000000, -0.000000000000000 ) );
#286 = CARTESIAN_POINT( '', ( 0.000000000000000, 0.000000000000000, 0.000000000000000 ) );
#287 = DIRECTION( '', ( 1.00000000000000, -0.000000000000000, 0.000000000000000 ) );
#288 = DIRECTION( '', ( 0.000000000000000, 0.000000000000000, -1.00000000000000 ) );
#289 = SURFACE_STYLE_FILL_AREA( #345 );
#290 = ORIENTED_EDGE( '', *, *, #83, .F. );
#291 = ORIENTED_EDGE( '', *, *, #63, .T. );
#292 = ORIENTED_EDGE( '', *, *, #59, .F. );
#293 = ORIENTED_EDGE( '', *, *, #53, .T. );
#294 = CARTESIAN_POINT( '', ( 0.000000000000000, 0.000000000000000, 0.000000000000000 ) );
#295 = DIRECTION( '', ( -1.00000000000000, -0.000000000000000, -0.000000000000000 ) );
#296 = DIRECTION( '', ( 0.000000000000000, 0.000000000000000, -1.00000000000000 ) );
#297 = CARTESIAN_POINT( '', ( 5000.00000000000, 0.000000000000000, 0.000000000000000 ) );
#298 = DIRECTION( '', ( 1.00000000000000, 0.000000000000000, 0.000000000000000 ) );
#299 = DIRECTION( '', ( 0.000000000000000, 0.000000000000000, -1.00000000000000 ) );
#300 = CARTESIAN_POINT( '', ( 5000.00000000000, 0.000000000000000, 0.000000000000000 ) );
#301 = DIRECTION( '', ( -1.00000000000000, 0.000000000000000, 0.000000000000000 ) );
#302 = DIRECTION( '', ( 0.000000000000000, 0.000000000000000, -1.00000000000000 ) );
#303 = SURFACE_STYLE_FILL_AREA( #346 );
#304 = CARTESIAN_POINT( '', ( 0.000000000000000, 0.000000000000000, 0.000000000000000 ) );
#305 = DIRECTION( '', ( 1.00000000000000, -0.000000000000000, 0.000000000000000 ) );
#306 = DIRECTION( '', ( 0.000000000000000, 0.000000000000000, -1.00000000000000 ) );
#307 = DIRECTION( '', ( 1.00000000000000, 0.000000000000000, 0.000000000000000 ) );
#308 = CARTESIAN_POINT( '', ( 0.000000000000000, 0.000000000000000, 0.000000000000000 ) );
#309 = DIRECTION( '', ( 1.00000000000000, -0.000000000000000, 0.000000000000000 ) );
#310 = DIRECTION( '', ( 0.000000000000000, 0.000000000000000, -1.00000000000000 ) );
#311 = DIRECTION( '', ( -1.00000000000000, 0.000000000000000, 0.000000000000000 ) );
#312 = DIRECTION( '', ( 1.00000000000000, 0.000000000000000, 0.000000000000000 ) );
#313 = SURFACE_STYLE_FILL_AREA( #347 );
#314 = ORIENTED_EDGE( '', *, *, #71, .F. );
#315 = ORIENTED_EDGE( '', *, *, #53, .F. );
#316 = ORIENTED_EDGE( '', *, *, #103, .F. );
#317 = ORIENTED_EDGE( '', *, *, #69, .F. );
#318 = CARTESIAN_POINT( '', ( 5000.00000000000, 0.000000000000000, 0.000000000000000 ) );
#319 = DIRECTION( '', ( 1.00000000000000, 0.000000000000000, 0.000000000000000 ) );
#320 = DIRECTION( '', ( 0.000000000000000, 0.000000000000000, -1.00000000000000 ) );
#321 = CARTESIAN_POINT( '', ( 0.000000000000000, 0.000000000000000, 0.000000000000000 ) );
#322 = DIRECTION( '', ( 1.00000000000000, -0.000000000000000, 0.000000000000000 ) );
#323 = DIRECTION( '', ( 0.000000000000000, 0.000000000000000, -1.00000000000000 ) );
#324 = SURFACE_STYLE_FILL_AREA( #348 );
#325 = ORIENTED_EDGE( '', *, *, #83, .T. );
#326 = ORIENTED_EDGE( '', *, *, #71, .T. );
#327 = ORIENTED_EDGE( '', *, *, #59, .T. );
#328 = ORIENTED_EDGE( '', *, *, #97, .T. );
#329 = CARTESIAN_POINT( '', ( 0.000000000000000, 0.000000000000000, 0.000000000000000 ) );
#330 = DIRECTION( '', ( -1.00000000000000, -0.000000000000000, -0.000000000000000 ) );
#331 = DIRECTION( '', ( 0.000000000000000, 0.000000000000000, -1.00000000000000 ) );
#332 = SURFACE_STYLE_FILL_AREA( #349 );
#333 = ORIENTED_EDGE( '', *, *, #63, .F. );
#334 = ORIENTED_EDGE( '', *, *, #97, .F. );
#335 = ORIENTED_EDGE( '', *, *, #81, .T. );
#336 = ORIENTED_EDGE( '', *, *, #85, .T. );
#337 = CARTESIAN_POINT( '', ( 0.000000000000000, 0.000000000000000, 0.000000000000000 ) );
#338 = DIRECTION( '', ( 1.00000000000000, 0.000000000000000, 0.000000000000000 ) );
#339 = DIRECTION( '', ( 0.000000000000000, 0.000000000000000, -1.00000000000000 ) );
#340 = CARTESIAN_POINT( '', ( 5000.00000000000, 0.000000000000000, 0.000000000000000 ) );
#341 = DIRECTION( '', ( 1.00000000000000, 0.000000000000000, 0.000000000000000 ) );
#342 = DIRECTION( '', ( 0.000000000000000, 0.000000000000000, -1.00000000000000 ) );
#343 = FILL_AREA_STYLE( '', ( #350 ) );
#344 = FILL_AREA_STYLE( '', ( #351 ) );
#345 = FILL_AREA_STYLE( '', ( #352 ) );
#346 = FILL_AREA_STYLE( '', ( #353 ) );
#347 = FILL_AREA_STYLE( '', ( #354 ) );
#348 = FILL_AREA_STYLE( '', ( #355 ) );
#349 = FILL_AREA_STYLE( '', ( #356 ) );
#350 = FILL_AREA_STYLE_COLOUR( '', #357 );
#351 = FILL_AREA_STYLE_COLOUR( '', #358 );
#352 = FILL_AREA_STYLE_COLOUR( '', #359 );
#353 = FILL_AREA_STYLE_COLOUR( '', #360 );
#354 = FILL_AREA_STYLE_COLOUR( '', #361 );
#355 = FILL_AREA_STYLE_COLOUR( '', #362 );
#356 = FILL_AREA_STYLE_COLOUR( '', #363 );
#357 = COLOUR_RGB( '', 0.689999997615810, 0.689999997615810, 0.689999997615810 );
#358 = COLOUR_RGB( '', 0.689999997615810, 0.689999997615810, 0.689999997615810 );
#359 = COLOUR_RGB( '', 0.689999997615810, 0.689999997615810, 0.689999997615810 );
#360 = COLOUR_RGB( '', 0.689999997615810, 0.689999997615810, 0.689999997615810 );
#361 = COLOUR_RGB( '', 0.689999997615810, 0.689999997615810, 0.689999997615810 );
#362 = COLOUR_RGB( '', 0.689999997615810, 0.689999997615810, 0.689999997615810 );
#363 = COLOUR_RGB( '', 0.689999997615810, 0.689999997615810, 0.689999997615810 );
ENDSEC;
END-ISO-10303-21;
