ISO-10303-21;
HEADER;
/* Generated by software containing ST-Developer
 * from STEP Tools, Inc. (www.steptools.com) 
 */

FILE_DESCRIPTION(
/* description */ (''),
/* implementation_level */ '2;1');

FILE_NAME(
/* name */ 'C:\\Users\\Gabriele\\Desktop\\catalogo\\TE40\\TE403150.stp',

/* time_stamp */ '2016-11-09T10:49:23+01:00',
/* author */ ('Gabriele'),
/* organization */ (''),
/* preprocessor_version */ 'ST-DEVELOPER v16.5',
/* originating_system */ 'Autodesk Inventor 2017',
/* authorisation */ '');

FILE_SCHEMA (('AUTOMOTIVE_DESIGN { 1 0 10303 214 3 1 1 }'));
ENDSEC;

DATA;
#10=MECHANICAL_DESIGN_GEOMETRIC_PRESENTATION_REPRESENTATION('',(#13),#317);
#11=SHAPE_REPRESENTATION_RELATIONSHIP('SRR','None',#326,#12);
#12=ADVANCED_BREP_SHAPE_REPRESENTATION('',(#14),#316);
#13=STYLED_ITEM('',(#335),#14);
#14=MANIFOLD_SOLID_BREP('Solido2',#177);
#15=PLANE('',#186);
#16=PLANE('',#193);
#17=PLANE('',#197);
#18=PLANE('',#202);
#19=PLANE('',#203);
#20=PLANE('',#207);
#21=FACE_BOUND('',#62,.T.);
#22=FACE_BOUND('',#64,.T.);
#23=FACE_BOUND('',#66,.T.);
#24=FACE_BOUND('',#68,.T.);
#25=FACE_BOUND('',#69,.T.);
#26=FACE_BOUND('',#71,.T.);
#27=FACE_BOUND('',#73,.T.);
#28=FACE_BOUND('',#75,.T.);
#29=FACE_BOUND('',#77,.T.);
#30=FACE_BOUND('',#79,.T.);
#31=FACE_BOUND('',#81,.T.);
#32=FACE_BOUND('',#83,.T.);
#33=FACE_BOUND('',#85,.T.);
#34=FACE_BOUND('',#86,.T.);
#35=FACE_BOUND('',#88,.T.);
#36=CIRCLE('',#182,154.5);
#37=CIRCLE('',#184,157.5);
#38=CIRCLE('',#185,157.5);
#39=CIRCLE('',#188,154.5);
#40=CIRCLE('',#189,154.5);
#41=CIRCLE('',#191,157.5);
#42=CIRCLE('',#192,157.5);
#43=CIRCLE('',#195,157.5);
#44=CIRCLE('',#196,157.5);
#45=CIRCLE('',#201,180.);
#46=CIRCLE('',#204,180.);
#47=CIRCLE('',#206,180.);
#48=FACE_OUTER_BOUND('',#61,.T.);
#49=FACE_OUTER_BOUND('',#63,.T.);
#50=FACE_OUTER_BOUND('',#65,.T.);
#51=FACE_OUTER_BOUND('',#67,.T.);
#52=FACE_OUTER_BOUND('',#70,.T.);
#53=FACE_OUTER_BOUND('',#72,.T.);
#54=FACE_OUTER_BOUND('',#74,.T.);
#55=FACE_OUTER_BOUND('',#76,.T.);
#56=FACE_OUTER_BOUND('',#78,.T.);
#57=FACE_OUTER_BOUND('',#80,.T.);
#58=FACE_OUTER_BOUND('',#82,.T.);
#59=FACE_OUTER_BOUND('',#84,.T.);
#60=FACE_OUTER_BOUND('',#87,.T.);
#61=EDGE_LOOP('',(#125,#126));
#62=EDGE_LOOP('',(#127));
#63=EDGE_LOOP('',(#128));
#64=EDGE_LOOP('',(#129));
#65=EDGE_LOOP('',(#130));
#66=EDGE_LOOP('',(#131));
#67=EDGE_LOOP('',(#132));
#68=EDGE_LOOP('',(#133,#134));
#69=EDGE_LOOP('',(#135));
#70=EDGE_LOOP('',(#136));
#71=EDGE_LOOP('',(#137));
#72=EDGE_LOOP('',(#138));
#73=EDGE_LOOP('',(#139));
#74=EDGE_LOOP('',(#140));
#75=EDGE_LOOP('',(#141));
#76=EDGE_LOOP('',(#142));
#77=EDGE_LOOP('',(#143));
#78=EDGE_LOOP('',(#144,#145));
#79=EDGE_LOOP('',(#146));
#80=EDGE_LOOP('',(#147));
#81=EDGE_LOOP('',(#148));
#82=EDGE_LOOP('',(#149));
#83=EDGE_LOOP('',(#150));
#84=EDGE_LOOP('',(#151));
#85=EDGE_LOOP('',(#152,#153));
#86=EDGE_LOOP('',(#154));
#87=EDGE_LOOP('',(#155));
#88=EDGE_LOOP('',(#156));
#89=ELLIPSE('',#180,218.495995386643,154.5);
#90=ELLIPSE('',#181,218.495995386643,154.5);
#91=ELLIPSE('',#199,254.558441227157,180.);
#92=ELLIPSE('',#200,254.558441227157,180.);
#93=VERTEX_POINT('',#270);
#94=VERTEX_POINT('',#271);
#95=VERTEX_POINT('',#274);
#96=VERTEX_POINT('',#277);
#97=VERTEX_POINT('',#279);
#98=VERTEX_POINT('',#283);
#99=VERTEX_POINT('',#285);
#100=VERTEX_POINT('',#288);
#101=VERTEX_POINT('',#290);
#102=VERTEX_POINT('',#294);
#103=VERTEX_POINT('',#296);
#104=VERTEX_POINT('',#300);
#105=VERTEX_POINT('',#301);
#106=VERTEX_POINT('',#304);
#107=VERTEX_POINT('',#308);
#108=VERTEX_POINT('',#311);
#109=EDGE_CURVE('',#93,#94,#89,.T.);
#110=EDGE_CURVE('',#94,#93,#90,.T.);
#111=EDGE_CURVE('',#95,#95,#36,.T.);
#112=EDGE_CURVE('',#96,#96,#37,.T.);
#113=EDGE_CURVE('',#97,#97,#38,.T.);
#114=EDGE_CURVE('',#98,#98,#39,.T.);
#115=EDGE_CURVE('',#99,#99,#40,.T.);
#116=EDGE_CURVE('',#100,#100,#41,.T.);
#117=EDGE_CURVE('',#101,#101,#42,.T.);
#118=EDGE_CURVE('',#102,#102,#43,.T.);
#119=EDGE_CURVE('',#103,#103,#44,.T.);
#120=EDGE_CURVE('',#104,#105,#91,.T.);
#121=EDGE_CURVE('',#105,#104,#92,.T.);
#122=EDGE_CURVE('',#106,#106,#45,.T.);
#123=EDGE_CURVE('',#107,#107,#46,.T.);
#124=EDGE_CURVE('',#108,#108,#47,.T.);
#125=ORIENTED_EDGE('',*,*,#109,.F.);
#126=ORIENTED_EDGE('',*,*,#110,.F.);
#127=ORIENTED_EDGE('',*,*,#111,.F.);
#128=ORIENTED_EDGE('',*,*,#112,.T.);
#129=ORIENTED_EDGE('',*,*,#113,.F.);
#130=ORIENTED_EDGE('',*,*,#112,.F.);
#131=ORIENTED_EDGE('',*,*,#111,.T.);
#132=ORIENTED_EDGE('',*,*,#114,.F.);
#133=ORIENTED_EDGE('',*,*,#109,.T.);
#134=ORIENTED_EDGE('',*,*,#110,.T.);
#135=ORIENTED_EDGE('',*,*,#115,.F.);
#136=ORIENTED_EDGE('',*,*,#116,.F.);
#137=ORIENTED_EDGE('',*,*,#117,.F.);
#138=ORIENTED_EDGE('',*,*,#116,.T.);
#139=ORIENTED_EDGE('',*,*,#115,.T.);
#140=ORIENTED_EDGE('',*,*,#118,.T.);
#141=ORIENTED_EDGE('',*,*,#119,.F.);
#142=ORIENTED_EDGE('',*,*,#118,.F.);
#143=ORIENTED_EDGE('',*,*,#114,.T.);
#144=ORIENTED_EDGE('',*,*,#120,.F.);
#145=ORIENTED_EDGE('',*,*,#121,.F.);
#146=ORIENTED_EDGE('',*,*,#122,.F.);
#147=ORIENTED_EDGE('',*,*,#122,.T.);
#148=ORIENTED_EDGE('',*,*,#113,.T.);
#149=ORIENTED_EDGE('',*,*,#123,.T.);
#150=ORIENTED_EDGE('',*,*,#117,.T.);
#151=ORIENTED_EDGE('',*,*,#123,.F.);
#152=ORIENTED_EDGE('',*,*,#121,.T.);
#153=ORIENTED_EDGE('',*,*,#120,.T.);
#154=ORIENTED_EDGE('',*,*,#124,.F.);
#155=ORIENTED_EDGE('',*,*,#124,.T.);
#156=ORIENTED_EDGE('',*,*,#119,.T.);
#157=CYLINDRICAL_SURFACE('',#179,154.5);
#158=CYLINDRICAL_SURFACE('',#183,157.5);
#159=CYLINDRICAL_SURFACE('',#187,154.5);
#160=CYLINDRICAL_SURFACE('',#190,157.5);
#161=CYLINDRICAL_SURFACE('',#194,157.5);
#162=CYLINDRICAL_SURFACE('',#198,180.);
#163=CYLINDRICAL_SURFACE('',#205,180.);
#164=ADVANCED_FACE('',(#48,#21),#157,.F.);
#165=ADVANCED_FACE('',(#49,#22),#158,.F.);
#166=ADVANCED_FACE('',(#50,#23),#15,.T.);
#167=ADVANCED_FACE('',(#51,#24,#25),#159,.F.);
#168=ADVANCED_FACE('',(#52,#26),#160,.F.);
#169=ADVANCED_FACE('',(#53,#27),#16,.F.);
#170=ADVANCED_FACE('',(#54,#28),#161,.F.);
#171=ADVANCED_FACE('',(#55,#29),#17,.T.);
#172=ADVANCED_FACE('',(#56,#30),#162,.T.);
#173=ADVANCED_FACE('',(#57,#31),#18,.T.);
#174=ADVANCED_FACE('',(#58,#32),#19,.F.);
#175=ADVANCED_FACE('',(#59,#33,#34),#163,.T.);
#176=ADVANCED_FACE('',(#60,#35),#20,.T.);
#177=CLOSED_SHELL('',(#164,#165,#166,#167,#168,#169,#170,#171,#172,#173,
#174,#175,#176));
#178=AXIS2_PLACEMENT_3D('placement',#268,#208,#209);
#179=AXIS2_PLACEMENT_3D('',#269,#210,#211);
#180=AXIS2_PLACEMENT_3D('',#272,#212,#213);
#181=AXIS2_PLACEMENT_3D('',#273,#214,#215);
#182=AXIS2_PLACEMENT_3D('',#275,#216,#217);
#183=AXIS2_PLACEMENT_3D('',#276,#218,#219);
#184=AXIS2_PLACEMENT_3D('',#278,#220,#221);
#185=AXIS2_PLACEMENT_3D('',#280,#222,#223);
#186=AXIS2_PLACEMENT_3D('',#281,#224,#225);
#187=AXIS2_PLACEMENT_3D('',#282,#226,#227);
#188=AXIS2_PLACEMENT_3D('',#284,#228,#229);
#189=AXIS2_PLACEMENT_3D('',#286,#230,#231);
#190=AXIS2_PLACEMENT_3D('',#287,#232,#233);
#191=AXIS2_PLACEMENT_3D('',#289,#234,#235);
#192=AXIS2_PLACEMENT_3D('',#291,#236,#237);
#193=AXIS2_PLACEMENT_3D('',#292,#238,#239);
#194=AXIS2_PLACEMENT_3D('',#293,#240,#241);
#195=AXIS2_PLACEMENT_3D('',#295,#242,#243);
#196=AXIS2_PLACEMENT_3D('',#297,#244,#245);
#197=AXIS2_PLACEMENT_3D('',#298,#246,#247);
#198=AXIS2_PLACEMENT_3D('',#299,#248,#249);
#199=AXIS2_PLACEMENT_3D('',#302,#250,#251);
#200=AXIS2_PLACEMENT_3D('',#303,#252,#253);
#201=AXIS2_PLACEMENT_3D('',#305,#254,#255);
#202=AXIS2_PLACEMENT_3D('',#306,#256,#257);
#203=AXIS2_PLACEMENT_3D('',#307,#258,#259);
#204=AXIS2_PLACEMENT_3D('',#309,#260,#261);
#205=AXIS2_PLACEMENT_3D('',#310,#262,#263);
#206=AXIS2_PLACEMENT_3D('',#312,#264,#265);
#207=AXIS2_PLACEMENT_3D('',#313,#266,#267);
#208=DIRECTION('axis',(0.,0.,1.));
#209=DIRECTION('refdir',(1.,0.,0.));
#210=DIRECTION('center_axis',(0.,-1.,0.));
#211=DIRECTION('ref_axis',(-1.,0.,0.));
#212=DIRECTION('center_axis',(0.,0.707106781186548,0.707106781186547));
#213=DIRECTION('ref_axis',(0.,0.707106781186547,-0.707106781186547));
#214=DIRECTION('center_axis',(0.,0.707106781186548,-0.707106781186547));
#215=DIRECTION('ref_axis',(0.,-0.707106781186547,-0.707106781186547));
#216=DIRECTION('center_axis',(0.,-1.,0.));
#217=DIRECTION('ref_axis',(-1.,0.,0.));
#218=DIRECTION('center_axis',(0.,-1.,0.));
#219=DIRECTION('ref_axis',(-1.,0.,0.));
#220=DIRECTION('center_axis',(0.,-1.,0.));
#221=DIRECTION('ref_axis',(-1.,0.,0.));
#222=DIRECTION('center_axis',(0.,-1.,0.));
#223=DIRECTION('ref_axis',(-1.,0.,0.));
#224=DIRECTION('center_axis',(0.,1.,0.));
#225=DIRECTION('ref_axis',(0.,0.,1.));
#226=DIRECTION('center_axis',(0.,0.,1.));
#227=DIRECTION('ref_axis',(1.,0.,0.));
#228=DIRECTION('center_axis',(0.,0.,-1.));
#229=DIRECTION('ref_axis',(1.,0.,0.));
#230=DIRECTION('center_axis',(0.,0.,1.));
#231=DIRECTION('ref_axis',(1.,0.,0.));
#232=DIRECTION('center_axis',(0.,0.,-1.));
#233=DIRECTION('ref_axis',(-1.,0.,0.));
#234=DIRECTION('center_axis',(0.,0.,-1.));
#235=DIRECTION('ref_axis',(-1.,0.,0.));
#236=DIRECTION('center_axis',(0.,0.,1.));
#237=DIRECTION('ref_axis',(-1.,0.,0.));
#238=DIRECTION('center_axis',(0.,0.,1.));
#239=DIRECTION('ref_axis',(1.,0.,0.));
#240=DIRECTION('center_axis',(0.,0.,-1.));
#241=DIRECTION('ref_axis',(-1.,0.,0.));
#242=DIRECTION('center_axis',(0.,0.,-1.));
#243=DIRECTION('ref_axis',(-1.,0.,0.));
#244=DIRECTION('center_axis',(0.,0.,-1.));
#245=DIRECTION('ref_axis',(-1.,0.,0.));
#246=DIRECTION('center_axis',(0.,0.,1.));
#247=DIRECTION('ref_axis',(1.,0.,0.));
#248=DIRECTION('center_axis',(0.,1.,0.));
#249=DIRECTION('ref_axis',(1.,0.,0.));
#250=DIRECTION('center_axis',(0.,-0.707106781186548,-0.707106781186548));
#251=DIRECTION('ref_axis',(0.,0.707106781186547,-0.707106781186547));
#252=DIRECTION('center_axis',(0.,-0.707106781186548,0.707106781186548));
#253=DIRECTION('ref_axis',(0.,-0.707106781186547,-0.707106781186547));
#254=DIRECTION('center_axis',(0.,1.,0.));
#255=DIRECTION('ref_axis',(1.,0.,0.));
#256=DIRECTION('center_axis',(0.,1.,0.));
#257=DIRECTION('ref_axis',(0.,0.,1.));
#258=DIRECTION('center_axis',(0.,0.,1.));
#259=DIRECTION('ref_axis',(1.,0.,0.));
#260=DIRECTION('center_axis',(0.,0.,-1.));
#261=DIRECTION('ref_axis',(-1.,0.,0.));
#262=DIRECTION('center_axis',(0.,0.,1.));
#263=DIRECTION('ref_axis',(-1.,0.,0.));
#264=DIRECTION('center_axis',(0.,0.,1.));
#265=DIRECTION('ref_axis',(-1.,0.,0.));
#266=DIRECTION('center_axis',(0.,0.,1.));
#267=DIRECTION('ref_axis',(1.,0.,0.));
#268=CARTESIAN_POINT('',(0.,0.,0.));
#269=CARTESIAN_POINT('Origin',(0.,159.,0.));
#270=CARTESIAN_POINT('',(154.5,-8.88178419700125E-14,-1.89207930468266E-14));
#271=CARTESIAN_POINT('',(-154.5,-8.88178419700125E-14,0.));
#272=CARTESIAN_POINT('Origin',(0.,-1.77635683940025E-14,0.));
#273=CARTESIAN_POINT('Origin',(0.,-1.77635683940025E-14,0.));
#274=CARTESIAN_POINT('',(154.5,159.,-1.89207930468266E-14));
#275=CARTESIAN_POINT('Origin',(0.,159.,0.));
#276=CARTESIAN_POINT('Origin',(0.,324.,0.));
#277=CARTESIAN_POINT('',(157.5,159.,-1.92881870865708E-14));
#278=CARTESIAN_POINT('Origin',(0.,159.,0.));
#279=CARTESIAN_POINT('',(157.5,324.,-1.92881870865708E-14));
#280=CARTESIAN_POINT('Origin',(0.,324.,0.));
#281=CARTESIAN_POINT('Origin',(-7.6225255229082E-15,159.,0.));
#282=CARTESIAN_POINT('Origin',(0.,0.,-159.));
#283=CARTESIAN_POINT('',(-154.5,1.89207930468266E-14,159.));
#284=CARTESIAN_POINT('Origin',(0.,0.,159.));
#285=CARTESIAN_POINT('',(-154.5,1.89207930468266E-14,-159.));
#286=CARTESIAN_POINT('Origin',(0.,0.,-159.));
#287=CARTESIAN_POINT('Origin',(0.,0.,-324.));
#288=CARTESIAN_POINT('',(157.5,1.92881870865708E-14,-159.));
#289=CARTESIAN_POINT('Origin',(0.,0.,-159.));
#290=CARTESIAN_POINT('',(157.5,1.92881870865708E-14,-324.));
#291=CARTESIAN_POINT('Origin',(0.,0.,-324.));
#292=CARTESIAN_POINT('Origin',(-7.6225255229082E-15,0.,-159.));
#293=CARTESIAN_POINT('Origin',(0.,0.,324.));
#294=CARTESIAN_POINT('',(157.5,1.92881870865708E-14,159.));
#295=CARTESIAN_POINT('Origin',(0.,0.,159.));
#296=CARTESIAN_POINT('',(157.5,1.92881870865708E-14,324.));
#297=CARTESIAN_POINT('Origin',(0.,0.,324.));
#298=CARTESIAN_POINT('Origin',(-7.6225255229082E-15,0.,159.));
#299=CARTESIAN_POINT('Origin',(0.,0.,0.));
#300=CARTESIAN_POINT('',(-180.,0.,2.20436423846524E-14));
#301=CARTESIAN_POINT('',(180.,0.,0.));
#302=CARTESIAN_POINT('Origin',(0.,0.,0.));
#303=CARTESIAN_POINT('Origin',(0.,0.,0.));
#304=CARTESIAN_POINT('',(-180.,324.,2.20436423846524E-14));
#305=CARTESIAN_POINT('Origin',(0.,324.,0.));
#306=CARTESIAN_POINT('Origin',(7.10024972286992E-15,324.,0.));
#307=CARTESIAN_POINT('Origin',(-7.10024972286992E-15,0.,-324.));
#308=CARTESIAN_POINT('',(180.,2.20436423846524E-14,-324.));
#309=CARTESIAN_POINT('Origin',(0.,0.,-324.));
#310=CARTESIAN_POINT('Origin',(0.,0.,0.));
#311=CARTESIAN_POINT('',(180.,2.20436423846524E-14,324.));
#312=CARTESIAN_POINT('Origin',(0.,0.,324.));
#313=CARTESIAN_POINT('Origin',(-7.10024972286992E-15,0.,324.));
#314=UNCERTAINTY_MEASURE_WITH_UNIT(LENGTH_MEASURE(0.01),#318,
'DISTANCE_ACCURACY_VALUE',
'Maximum model space distance between geometric entities at asserted c
onnectivities');
#315=UNCERTAINTY_MEASURE_WITH_UNIT(LENGTH_MEASURE(1.E-6),#318,
'DISTANCE_ACCURACY_VALUE',
'Maximum model space distance between geometric entities at asserted c
onnectivities');
#316=(
GEOMETRIC_REPRESENTATION_CONTEXT(3)
GLOBAL_UNCERTAINTY_ASSIGNED_CONTEXT((#314))
GLOBAL_UNIT_ASSIGNED_CONTEXT((#318,#321,#319))
REPRESENTATION_CONTEXT('','3D')
);
#317=(
GEOMETRIC_REPRESENTATION_CONTEXT(3)
GLOBAL_UNCERTAINTY_ASSIGNED_CONTEXT((#315))
GLOBAL_UNIT_ASSIGNED_CONTEXT((#318,#321,#319))
REPRESENTATION_CONTEXT('','3D')
);
#318=(
LENGTH_UNIT()
NAMED_UNIT(*)
SI_UNIT(.MILLI.,.METRE.)
);
#319=(
NAMED_UNIT(*)
SI_UNIT($,.STERADIAN.)
SOLID_ANGLE_UNIT()
);
#320=DIMENSIONAL_EXPONENTS(0.,0.,0.,0.,0.,0.,0.);
#321=(
CONVERSION_BASED_UNIT('degree',#323)
NAMED_UNIT(#320)
PLANE_ANGLE_UNIT()
);
#322=(
NAMED_UNIT(*)
PLANE_ANGLE_UNIT()
SI_UNIT($,.RADIAN.)
);
#323=PLANE_ANGLE_MEASURE_WITH_UNIT(PLANE_ANGLE_MEASURE(0.01745329252),#322);
#324=SHAPE_DEFINITION_REPRESENTATION(#325,#326);
#325=PRODUCT_DEFINITION_SHAPE('',$,#328);
#326=SHAPE_REPRESENTATION('',(#178),#316);
#327=PRODUCT_DEFINITION_CONTEXT('part definition',#332,'design');
#328=PRODUCT_DEFINITION('TE403150','TE403150',#329,#327);
#329=PRODUCT_DEFINITION_FORMATION('',$,#334);
#330=PRODUCT_RELATED_PRODUCT_CATEGORY('TE403150','TE403150',(#334));
#331=APPLICATION_PROTOCOL_DEFINITION('international standard',
'automotive_design',2009,#332);
#332=APPLICATION_CONTEXT(
'Core Data for Automotive Mechanical Design Process');
#333=PRODUCT_CONTEXT('part definition',#332,'mechanical');
#334=PRODUCT('TE403150','TE403150',$,(#333));
#335=PRESENTATION_STYLE_ASSIGNMENT((#336));
#336=SURFACE_STYLE_USAGE(.BOTH.,#337);
#337=SURFACE_SIDE_STYLE('',(#338));
#338=SURFACE_STYLE_FILL_AREA(#339);
#339=FILL_AREA_STYLE('',(#340));
#340=FILL_AREA_STYLE_COLOUR('',#341);
#341=COLOUR_RGB('',0.8,0.8,0.8);
ENDSEC;
END-ISO-10303-21;
