ISO-10303-21;
HEADER;
FILE_DESCRIPTION( ( '' ), '1' );
FILE_NAME( '//se01002/users/anro/AGRU_12705035526_PPH_grau_Rohr__5m_355X13_6__SDR26__ISO_S-12_5_10.stp', '2018-02-07T07:52:54', ( '' ), ( '' ), ' ', ' ', ' ' );
FILE_SCHEMA( ( 'automotive_design' ) );
ENDSEC;
DATA;
#1 = MECHANICAL_DESIGN_GEOMETRIC_PRESENTATION_REPRESENTATION( ' ', ( #10, #11, #12, #13, #14, #15, #16, #17, #18, #19, #20, #21, #22, #23, #24, #25, #26, #27, #28, #29, #30, #31, #32, #33, #34, #35, #36 ), #6 );
#2 = PRODUCT_DEFINITION_CONTEXT( '', #37, 'design' );
#3 = APPLICATION_PROTOCOL_DEFINITION( 'INTERNATIONAL STANDARD', 'automotive_design', 1994, #37 );
#4 = PRODUCT_CATEGORY_RELATIONSHIP( 'NONE', 'NONE', #38, #39 );
#5 = SHAPE_DEFINITION_REPRESENTATION( #40, #41 );
#6 =  ( GEOMETRIC_REPRESENTATION_CONTEXT( 3 )GLOBAL_UNCERTAINTY_ASSIGNED_CONTEXT( ( #44 ) )GLOBAL_UNIT_ASSIGNED_CONTEXT( ( #46, #47, #48 ) )REPRESENTATION_CONTEXT( 'NONE', 'WORKSPACE' ) );
#10 = STYLED_ITEM( '', ( #50 ), #51 );
#11 = STYLED_ITEM( '', ( #52 ), #53 );
#12 = STYLED_ITEM( '', ( #54 ), #55 );
#13 = STYLED_ITEM( '', ( #56 ), #57 );
#14 = STYLED_ITEM( '', ( #58 ), #59 );
#15 = STYLED_ITEM( '', ( #60 ), #61 );
#16 = STYLED_ITEM( '', ( #62 ), #63 );
#17 = STYLED_ITEM( '', ( #64 ), #65 );
#18 = STYLED_ITEM( '', ( #66 ), #67 );
#19 = STYLED_ITEM( '', ( #68 ), #69 );
#20 = STYLED_ITEM( '', ( #70 ), #71 );
#21 = STYLED_ITEM( '', ( #72 ), #73 );
#22 = STYLED_ITEM( '', ( #74 ), #75 );
#23 = STYLED_ITEM( '', ( #76 ), #77 );
#24 = STYLED_ITEM( '', ( #78 ), #79 );
#25 = STYLED_ITEM( '', ( #80 ), #81 );
#26 = STYLED_ITEM( '', ( #82 ), #83 );
#27 = STYLED_ITEM( '', ( #84 ), #85 );
#28 = STYLED_ITEM( '', ( #86 ), #87 );
#29 = STYLED_ITEM( '', ( #88 ), #89 );
#30 = STYLED_ITEM( '', ( #90 ), #91 );
#31 = STYLED_ITEM( '', ( #92 ), #93 );
#32 = STYLED_ITEM( '', ( #94 ), #95 );
#33 = STYLED_ITEM( '', ( #96 ), #97 );
#34 = STYLED_ITEM( '', ( #98 ), #99 );
#35 = STYLED_ITEM( '', ( #100 ), #101 );
#36 = STYLED_ITEM( '', ( #102 ), #103 );
#37 = APPLICATION_CONTEXT( ' ' );
#38 = PRODUCT_CATEGORY( 'part', 'NONE' );
#39 = PRODUCT_RELATED_PRODUCT_CATEGORY( 'detail', ' ', ( #104 ) );
#40 = PRODUCT_DEFINITION_SHAPE( 'NONE', 'NONE', #105 );
#41 = ADVANCED_BREP_SHAPE_REPRESENTATION( '1', ( #53, #106 ), #6 );
#44 = UNCERTAINTY_MEASURE_WITH_UNIT( LENGTH_MEASURE( 1.00000000000000E-006 ), #46, '', '' );
#46 =  ( CONVERSION_BASED_UNIT( 'MILLIMETRE', #109 )LENGTH_UNIT(  )NAMED_UNIT( #112 ) );
#47 =  ( NAMED_UNIT( #114 )PLANE_ANGLE_UNIT(  )SI_UNIT( $, .RADIAN. ) );
#48 =  ( NAMED_UNIT( #114 )SOLID_ANGLE_UNIT(  )SI_UNIT( $, .STERADIAN. ) );
#50 = PRESENTATION_STYLE_ASSIGNMENT( ( #120 ) );
#51 = EDGE_CURVE( '', #87, #91, #121, .T. );
#52 = PRESENTATION_STYLE_ASSIGNMENT( ( #122 ) );
#53 = MANIFOLD_SOLID_BREP( '1', #123 );
#54 = PRESENTATION_STYLE_ASSIGNMENT( ( #124 ) );
#55 = EDGE_CURVE( '', #59, #81, #125, .T. );
#56 = PRESENTATION_STYLE_ASSIGNMENT( ( #126 ) );
#57 = EDGE_CURVE( '', #89, #93, #127, .T. );
#58 = PRESENTATION_STYLE_ASSIGNMENT( ( #128 ) );
#59 = VERTEX_POINT( '', #129 );
#60 = PRESENTATION_STYLE_ASSIGNMENT( ( #130 ) );
#61 = EDGE_CURVE( '', #93, #65, #131, .T. );
#62 = PRESENTATION_STYLE_ASSIGNMENT( ( #132 ) );
#63 = EDGE_CURVE( '', #91, #81, #133, .T. );
#64 = PRESENTATION_STYLE_ASSIGNMENT( ( #134 ) );
#65 = VERTEX_POINT( '', #135 );
#66 = PRESENTATION_STYLE_ASSIGNMENT( ( #136 ) );
#67 = ADVANCED_FACE( '', ( #137, #138 ), #139, .T. );
#68 = PRESENTATION_STYLE_ASSIGNMENT( ( #140 ) );
#69 = EDGE_CURVE( '', #59, #87, #141, .T. );
#70 = PRESENTATION_STYLE_ASSIGNMENT( ( #142 ) );
#71 = EDGE_CURVE( '', #65, #103, #143, .T. );
#72 = PRESENTATION_STYLE_ASSIGNMENT( ( #144 ) );
#73 = EDGE_CURVE( '', #91, #87, #145, .T. );
#74 = PRESENTATION_STYLE_ASSIGNMENT( ( #146 ) );
#75 = ADVANCED_FACE( '', ( #147 ), #148, .T. );
#76 = PRESENTATION_STYLE_ASSIGNMENT( ( #149 ) );
#77 = ADVANCED_FACE( '', ( #150, #151 ), #152, .F. );
#78 = PRESENTATION_STYLE_ASSIGNMENT( ( #153 ) );
#79 = ADVANCED_FACE( '', ( #154 ), #155, .F. );
#80 = PRESENTATION_STYLE_ASSIGNMENT( ( #156 ) );
#81 = VERTEX_POINT( '', #157 );
#82 = PRESENTATION_STYLE_ASSIGNMENT( ( #158 ) );
#83 = EDGE_CURVE( '', #89, #103, #159, .T. );
#84 = PRESENTATION_STYLE_ASSIGNMENT( ( #160 ) );
#85 = EDGE_CURVE( '', #81, #59, #161, .T. );
#86 = PRESENTATION_STYLE_ASSIGNMENT( ( #162 ) );
#87 = VERTEX_POINT( '', #163 );
#88 = PRESENTATION_STYLE_ASSIGNMENT( ( #164 ) );
#89 = VERTEX_POINT( '', #165 );
#90 = PRESENTATION_STYLE_ASSIGNMENT( ( #166 ) );
#91 = VERTEX_POINT( '', #167 );
#92 = PRESENTATION_STYLE_ASSIGNMENT( ( #168 ) );
#93 = VERTEX_POINT( '', #169 );
#94 = PRESENTATION_STYLE_ASSIGNMENT( ( #170 ) );
#95 = EDGE_CURVE( '', #65, #93, #171, .T. );
#96 = PRESENTATION_STYLE_ASSIGNMENT( ( #172 ) );
#97 = ADVANCED_FACE( '', ( #173 ), #174, .F. );
#98 = PRESENTATION_STYLE_ASSIGNMENT( ( #175 ) );
#99 = EDGE_CURVE( '', #103, #89, #176, .T. );
#100 = PRESENTATION_STYLE_ASSIGNMENT( ( #177 ) );
#101 = ADVANCED_FACE( '', ( #178 ), #179, .T. );
#102 = PRESENTATION_STYLE_ASSIGNMENT( ( #180 ) );
#103 = VERTEX_POINT( '', #181 );
#104 = PRODUCT( '1', '1', 'PART-1-DESC', ( #182 ) );
#105 = PRODUCT_DEFINITION( 'NONE', 'NONE', #183, #2 );
#106 = AXIS2_PLACEMENT_3D( '', #184, #185, #186 );
#109 = LENGTH_MEASURE_WITH_UNIT( LENGTH_MEASURE( 1.00000000000000 ), #187 );
#112 = DIMENSIONAL_EXPONENTS( 1.00000000000000, 0.000000000000000, 0.000000000000000, 0.000000000000000, 0.000000000000000, 0.000000000000000, 0.000000000000000 );
#114 = DIMENSIONAL_EXPONENTS( 0.000000000000000, 0.000000000000000, 0.000000000000000, 0.000000000000000, 0.000000000000000, 0.000000000000000, 0.000000000000000 );
#120 = CURVE_STYLE( '', #188, POSITIVE_LENGTH_MEASURE( 1.00000000000000E-006 ), #189 );
#121 = CIRCLE( '', #190, 177.500000000000 );
#122 = SURFACE_STYLE_USAGE( .BOTH., #191 );
#123 = CLOSED_SHELL( '', ( #75, #79, #97, #101, #67, #77 ) );
#124 = CURVE_STYLE( '', #192, POSITIVE_LENGTH_MEASURE( 1.00000000000000E-006 ), #193 );
#125 = CIRCLE( '', #194, 177.500000000000 );
#126 = CURVE_STYLE( '', #195, POSITIVE_LENGTH_MEASURE( 1.00000000000000E-006 ), #196 );
#127 = LINE( '', #197, #198 );
#128 = POINT_STYLE( ' ', #199, POSITIVE_LENGTH_MEASURE( 1.00000000000000E-006 ), #200 );
#129 = CARTESIAN_POINT( '', ( 5000.00000000000, 2.17367627803472E-014, 177.500000000000 ) );
#130 = CURVE_STYLE( '', #201, POSITIVE_LENGTH_MEASURE( 1.00000000000000E-006 ), #202 );
#131 = CIRCLE( '', #203, 163.900000000000 );
#132 = CURVE_STYLE( '', #204, POSITIVE_LENGTH_MEASURE( 1.00000000000000E-006 ), #205 );
#133 = LINE( '', #206, #207 );
#134 = POINT_STYLE( ' ', #208, POSITIVE_LENGTH_MEASURE( 1.00000000000000E-006 ), #209 );
#135 = CARTESIAN_POINT( '', ( 5000.00000000000, 2.00712981391488E-014, 163.900000000000 ) );
#136 = SURFACE_STYLE_USAGE( .BOTH., #210 );
#137 = FACE_OUTER_BOUND( '', #211, .T. );
#138 = FACE_BOUND( '', #212, .T. );
#139 = PLANE( '', #213 );
#140 = CURVE_STYLE( '', #214, POSITIVE_LENGTH_MEASURE( 1.00000000000000E-006 ), #215 );
#141 = LINE( '', #216, #217 );
#142 = CURVE_STYLE( '', #218, POSITIVE_LENGTH_MEASURE( 1.00000000000000E-006 ), #219 );
#143 = LINE( '', #220, #221 );
#144 = CURVE_STYLE( '', #222, POSITIVE_LENGTH_MEASURE( 1.00000000000000E-006 ), #223 );
#145 = CIRCLE( '', #224, 177.500000000000 );
#146 = SURFACE_STYLE_USAGE( .BOTH., #225 );
#147 = FACE_OUTER_BOUND( '', #226, .T. );
#148 = CYLINDRICAL_SURFACE( '', #227, 177.500000000000 );
#149 = SURFACE_STYLE_USAGE( .BOTH., #228 );
#150 = FACE_OUTER_BOUND( '', #229, .T. );
#151 = FACE_BOUND( '', #230, .T. );
#152 = PLANE( '', #231 );
#153 = SURFACE_STYLE_USAGE( .BOTH., #232 );
#154 = FACE_OUTER_BOUND( '', #233, .T. );
#155 = CYLINDRICAL_SURFACE( '', #234, 163.900000000000 );
#156 = POINT_STYLE( ' ', #235, POSITIVE_LENGTH_MEASURE( 1.00000000000000E-006 ), #236 );
#157 = CARTESIAN_POINT( '', ( 5000.00000000000, 0.000000000000000, -177.500000000000 ) );
#158 = CURVE_STYLE( '', #237, POSITIVE_LENGTH_MEASURE( 1.00000000000000E-006 ), #238 );
#159 = CIRCLE( '', #239, 163.900000000000 );
#160 = CURVE_STYLE( '', #240, POSITIVE_LENGTH_MEASURE( 1.00000000000000E-006 ), #241 );
#161 = CIRCLE( '', #242, 177.500000000000 );
#162 = POINT_STYLE( ' ', #243, POSITIVE_LENGTH_MEASURE( 1.00000000000000E-006 ), #244 );
#163 = CARTESIAN_POINT( '', ( 0.000000000000000, 2.17367627803472E-014, 177.500000000000 ) );
#164 = POINT_STYLE( ' ', #245, POSITIVE_LENGTH_MEASURE( 1.00000000000000E-006 ), #246 );
#165 = CARTESIAN_POINT( '', ( 0.000000000000000, 0.000000000000000, -163.900000000000 ) );
#166 = POINT_STYLE( ' ', #247, POSITIVE_LENGTH_MEASURE( 1.00000000000000E-006 ), #248 );
#167 = CARTESIAN_POINT( '', ( 0.000000000000000, 0.000000000000000, -177.500000000000 ) );
#168 = POINT_STYLE( ' ', #249, POSITIVE_LENGTH_MEASURE( 1.00000000000000E-006 ), #250 );
#169 = CARTESIAN_POINT( '', ( 5000.00000000000, 0.000000000000000, -163.900000000000 ) );
#170 = CURVE_STYLE( '', #251, POSITIVE_LENGTH_MEASURE( 1.00000000000000E-006 ), #252 );
#171 = CIRCLE( '', #253, 163.900000000000 );
#172 = SURFACE_STYLE_USAGE( .BOTH., #254 );
#173 = FACE_OUTER_BOUND( '', #255, .T. );
#174 = CYLINDRICAL_SURFACE( '', #256, 163.900000000000 );
#175 = CURVE_STYLE( '', #257, POSITIVE_LENGTH_MEASURE( 1.00000000000000E-006 ), #258 );
#176 = CIRCLE( '', #259, 163.900000000000 );
#177 = SURFACE_STYLE_USAGE( .BOTH., #260 );
#178 = FACE_OUTER_BOUND( '', #261, .T. );
#179 = CYLINDRICAL_SURFACE( '', #262, 177.500000000000 );
#180 = POINT_STYLE( ' ', #263, POSITIVE_LENGTH_MEASURE( 1.00000000000000E-006 ), #264 );
#181 = CARTESIAN_POINT( '', ( 0.000000000000000, 2.00712981391488E-014, 163.900000000000 ) );
#182 = PRODUCT_CONTEXT( '', #37, 'mechanical' );
#183 = PRODUCT_DEFINITION_FORMATION_WITH_SPECIFIED_SOURCE( ' ', 'NONE', #104, .NOT_KNOWN. );
#184 = CARTESIAN_POINT( '', ( 0.000000000000000, 0.000000000000000, 0.000000000000000 ) );
#185 = DIRECTION( '', ( 0.000000000000000, 0.000000000000000, 1.00000000000000 ) );
#186 = DIRECTION( '', ( 1.00000000000000, 0.000000000000000, 0.000000000000000 ) );
#187 =  ( NAMED_UNIT( #112 )LENGTH_UNIT(  )SI_UNIT( .MILLI., .METRE. ) );
#188 = DRAUGHTING_PRE_DEFINED_CURVE_FONT( 'continuous' );
#189 = COLOUR_RGB( '', 0.689999997615810, 0.689999997615810, 0.689999997615810 );
#190 = AXIS2_PLACEMENT_3D( '', #266, #267, #268 );
#191 = SURFACE_SIDE_STYLE( '', ( #269 ) );
#192 = DRAUGHTING_PRE_DEFINED_CURVE_FONT( 'continuous' );
#193 = COLOUR_RGB( '', 0.689999997615810, 0.689999997615810, 0.689999997615810 );
#194 = AXIS2_PLACEMENT_3D( '', #270, #271, #272 );
#195 = DRAUGHTING_PRE_DEFINED_CURVE_FONT( 'continuous' );
#196 = COLOUR_RGB( '', 0.689999997615810, 0.689999997615810, 0.689999997615810 );
#197 = CARTESIAN_POINT( '', ( 0.000000000000000, -2.00712981391488E-014, -163.900000000000 ) );
#198 = VECTOR( '', #273, 1.00000000000000 );
#199 = PRE_DEFINED_MARKER( '' );
#200 = COLOUR_RGB( '', 0.689999997615810, 0.689999997615810, 0.689999997615810 );
#201 = DRAUGHTING_PRE_DEFINED_CURVE_FONT( 'continuous' );
#202 = COLOUR_RGB( '', 0.689999997615810, 0.689999997615810, 0.689999997615810 );
#203 = AXIS2_PLACEMENT_3D( '', #274, #275, #276 );
#204 = DRAUGHTING_PRE_DEFINED_CURVE_FONT( 'continuous' );
#205 = COLOUR_RGB( '', 0.689999997615810, 0.689999997615810, 0.689999997615810 );
#206 = CARTESIAN_POINT( '', ( 0.000000000000000, -2.17367627803472E-014, -177.500000000000 ) );
#207 = VECTOR( '', #277, 1.00000000000000 );
#208 = PRE_DEFINED_MARKER( '' );
#209 = COLOUR_RGB( '', 0.689999997615810, 0.689999997615810, 0.689999997615810 );
#210 = SURFACE_SIDE_STYLE( '', ( #278 ) );
#211 = EDGE_LOOP( '', ( #279, #280 ) );
#212 = EDGE_LOOP( '', ( #281, #282 ) );
#213 = AXIS2_PLACEMENT_3D( '', #283, #284, #285 );
#214 = DRAUGHTING_PRE_DEFINED_CURVE_FONT( 'continuous' );
#215 = COLOUR_RGB( '', 0.689999997615810, 0.689999997615810, 0.689999997615810 );
#216 = CARTESIAN_POINT( '', ( 0.000000000000000, 2.17367627803472E-014, 177.500000000000 ) );
#217 = VECTOR( '', #286, 1.00000000000000 );
#218 = DRAUGHTING_PRE_DEFINED_CURVE_FONT( 'continuous' );
#219 = COLOUR_RGB( '', 0.689999997615810, 0.689999997615810, 0.689999997615810 );
#220 = CARTESIAN_POINT( '', ( 0.000000000000000, 2.00712981391488E-014, 163.900000000000 ) );
#221 = VECTOR( '', #287, 1.00000000000000 );
#222 = DRAUGHTING_PRE_DEFINED_CURVE_FONT( 'continuous' );
#223 = COLOUR_RGB( '', 0.689999997615810, 0.689999997615810, 0.689999997615810 );
#224 = AXIS2_PLACEMENT_3D( '', #288, #289, #290 );
#225 = SURFACE_SIDE_STYLE( '', ( #291 ) );
#226 = EDGE_LOOP( '', ( #292, #293, #294, #295 ) );
#227 = AXIS2_PLACEMENT_3D( '', #296, #297, #298 );
#228 = SURFACE_SIDE_STYLE( '', ( #299 ) );
#229 = EDGE_LOOP( '', ( #300, #301 ) );
#230 = EDGE_LOOP( '', ( #302, #303 ) );
#231 = AXIS2_PLACEMENT_3D( '', #304, #305, #306 );
#232 = SURFACE_SIDE_STYLE( '', ( #307 ) );
#233 = EDGE_LOOP( '', ( #308, #309, #310, #311 ) );
#234 = AXIS2_PLACEMENT_3D( '', #312, #313, #314 );
#235 = PRE_DEFINED_MARKER( '' );
#236 = COLOUR_RGB( '', 0.689999997615810, 0.689999997615810, 0.689999997615810 );
#237 = DRAUGHTING_PRE_DEFINED_CURVE_FONT( 'continuous' );
#238 = COLOUR_RGB( '', 0.689999997615810, 0.689999997615810, 0.689999997615810 );
#239 = AXIS2_PLACEMENT_3D( '', #315, #316, #317 );
#240 = DRAUGHTING_PRE_DEFINED_CURVE_FONT( 'continuous' );
#241 = COLOUR_RGB( '', 0.689999997615810, 0.689999997615810, 0.689999997615810 );
#242 = AXIS2_PLACEMENT_3D( '', #318, #319, #320 );
#243 = PRE_DEFINED_MARKER( '' );
#244 = COLOUR_RGB( '', 0.689999997615810, 0.689999997615810, 0.689999997615810 );
#245 = PRE_DEFINED_MARKER( '' );
#246 = COLOUR_RGB( '', 0.689999997615810, 0.689999997615810, 0.689999997615810 );
#247 = PRE_DEFINED_MARKER( '' );
#248 = COLOUR_RGB( '', 0.689999997615810, 0.689999997615810, 0.689999997615810 );
#249 = PRE_DEFINED_MARKER( '' );
#250 = COLOUR_RGB( '', 0.689999997615810, 0.689999997615810, 0.689999997615810 );
#251 = DRAUGHTING_PRE_DEFINED_CURVE_FONT( 'continuous' );
#252 = COLOUR_RGB( '', 0.689999997615810, 0.689999997615810, 0.689999997615810 );
#253 = AXIS2_PLACEMENT_3D( '', #321, #322, #323 );
#254 = SURFACE_SIDE_STYLE( '', ( #324 ) );
#255 = EDGE_LOOP( '', ( #325, #326, #327, #328 ) );
#256 = AXIS2_PLACEMENT_3D( '', #329, #330, #331 );
#257 = DRAUGHTING_PRE_DEFINED_CURVE_FONT( 'continuous' );
#258 = COLOUR_RGB( '', 0.689999997615810, 0.689999997615810, 0.689999997615810 );
#259 = AXIS2_PLACEMENT_3D( '', #332, #333, #334 );
#260 = SURFACE_SIDE_STYLE( '', ( #335 ) );
#261 = EDGE_LOOP( '', ( #336, #337, #338, #339 ) );
#262 = AXIS2_PLACEMENT_3D( '', #340, #341, #342 );
#263 = PRE_DEFINED_MARKER( '' );
#264 = COLOUR_RGB( '', 0.689999997615810, 0.689999997615810, 0.689999997615810 );
#266 = CARTESIAN_POINT( '', ( 0.000000000000000, 0.000000000000000, 0.000000000000000 ) );
#267 = DIRECTION( '', ( 1.00000000000000, -0.000000000000000, 0.000000000000000 ) );
#268 = DIRECTION( '', ( 0.000000000000000, 0.000000000000000, -1.00000000000000 ) );
#269 = SURFACE_STYLE_FILL_AREA( #343 );
#270 = CARTESIAN_POINT( '', ( 5000.00000000000, 0.000000000000000, 0.000000000000000 ) );
#271 = DIRECTION( '', ( -1.00000000000000, 0.000000000000000, 0.000000000000000 ) );
#272 = DIRECTION( '', ( 0.000000000000000, 0.000000000000000, -1.00000000000000 ) );
#273 = DIRECTION( '', ( 1.00000000000000, 0.000000000000000, 0.000000000000000 ) );
#274 = CARTESIAN_POINT( '', ( 5000.00000000000, 0.000000000000000, 0.000000000000000 ) );
#275 = DIRECTION( '', ( 1.00000000000000, 0.000000000000000, 0.000000000000000 ) );
#276 = DIRECTION( '', ( 0.000000000000000, 0.000000000000000, -1.00000000000000 ) );
#277 = DIRECTION( '', ( 1.00000000000000, 0.000000000000000, 0.000000000000000 ) );
#278 = SURFACE_STYLE_FILL_AREA( #344 );
#279 = ORIENTED_EDGE( '', *, *, #85, .F. );
#280 = ORIENTED_EDGE( '', *, *, #55, .F. );
#281 = ORIENTED_EDGE( '', *, *, #61, .F. );
#282 = ORIENTED_EDGE( '', *, *, #95, .F. );
#283 = CARTESIAN_POINT( '', ( 5000.00000000000, 0.000000000000000, 0.000000000000000 ) );
#284 = DIRECTION( '', ( 1.00000000000000, 0.000000000000000, 0.000000000000000 ) );
#285 = DIRECTION( '', ( 0.000000000000000, 0.000000000000000, -1.00000000000000 ) );
#286 = DIRECTION( '', ( -1.00000000000000, -0.000000000000000, -0.000000000000000 ) );
#287 = DIRECTION( '', ( -1.00000000000000, 0.000000000000000, 0.000000000000000 ) );
#288 = CARTESIAN_POINT( '', ( 0.000000000000000, 0.000000000000000, 0.000000000000000 ) );
#289 = DIRECTION( '', ( 1.00000000000000, -0.000000000000000, 0.000000000000000 ) );
#290 = DIRECTION( '', ( 0.000000000000000, 0.000000000000000, -1.00000000000000 ) );
#291 = SURFACE_STYLE_FILL_AREA( #345 );
#292 = ORIENTED_EDGE( '', *, *, #63, .F. );
#293 = ORIENTED_EDGE( '', *, *, #73, .T. );
#294 = ORIENTED_EDGE( '', *, *, #69, .F. );
#295 = ORIENTED_EDGE( '', *, *, #55, .T. );
#296 = CARTESIAN_POINT( '', ( 0.000000000000000, 0.000000000000000, 0.000000000000000 ) );
#297 = DIRECTION( '', ( -1.00000000000000, -0.000000000000000, -0.000000000000000 ) );
#298 = DIRECTION( '', ( 0.000000000000000, 0.000000000000000, -1.00000000000000 ) );
#299 = SURFACE_STYLE_FILL_AREA( #346 );
#300 = ORIENTED_EDGE( '', *, *, #73, .F. );
#301 = ORIENTED_EDGE( '', *, *, #51, .F. );
#302 = ORIENTED_EDGE( '', *, *, #83, .T. );
#303 = ORIENTED_EDGE( '', *, *, #99, .T. );
#304 = CARTESIAN_POINT( '', ( 0.000000000000000, 0.000000000000000, 0.000000000000000 ) );
#305 = DIRECTION( '', ( 1.00000000000000, 0.000000000000000, 0.000000000000000 ) );
#306 = DIRECTION( '', ( 0.000000000000000, 0.000000000000000, -1.00000000000000 ) );
#307 = SURFACE_STYLE_FILL_AREA( #347 );
#308 = ORIENTED_EDGE( '', *, *, #57, .F. );
#309 = ORIENTED_EDGE( '', *, *, #99, .F. );
#310 = ORIENTED_EDGE( '', *, *, #71, .F. );
#311 = ORIENTED_EDGE( '', *, *, #95, .T. );
#312 = CARTESIAN_POINT( '', ( 0.000000000000000, 0.000000000000000, 0.000000000000000 ) );
#313 = DIRECTION( '', ( -1.00000000000000, -0.000000000000000, -0.000000000000000 ) );
#314 = DIRECTION( '', ( 0.000000000000000, 0.000000000000000, -1.00000000000000 ) );
#315 = CARTESIAN_POINT( '', ( 0.000000000000000, 0.000000000000000, 0.000000000000000 ) );
#316 = DIRECTION( '', ( 1.00000000000000, -0.000000000000000, 0.000000000000000 ) );
#317 = DIRECTION( '', ( 0.000000000000000, 0.000000000000000, -1.00000000000000 ) );
#318 = CARTESIAN_POINT( '', ( 5000.00000000000, 0.000000000000000, 0.000000000000000 ) );
#319 = DIRECTION( '', ( -1.00000000000000, 0.000000000000000, 0.000000000000000 ) );
#320 = DIRECTION( '', ( 0.000000000000000, 0.000000000000000, -1.00000000000000 ) );
#321 = CARTESIAN_POINT( '', ( 5000.00000000000, 0.000000000000000, 0.000000000000000 ) );
#322 = DIRECTION( '', ( 1.00000000000000, 0.000000000000000, 0.000000000000000 ) );
#323 = DIRECTION( '', ( 0.000000000000000, 0.000000000000000, -1.00000000000000 ) );
#324 = SURFACE_STYLE_FILL_AREA( #348 );
#325 = ORIENTED_EDGE( '', *, *, #57, .T. );
#326 = ORIENTED_EDGE( '', *, *, #61, .T. );
#327 = ORIENTED_EDGE( '', *, *, #71, .T. );
#328 = ORIENTED_EDGE( '', *, *, #83, .F. );
#329 = CARTESIAN_POINT( '', ( 0.000000000000000, 0.000000000000000, 0.000000000000000 ) );
#330 = DIRECTION( '', ( -1.00000000000000, -0.000000000000000, -0.000000000000000 ) );
#331 = DIRECTION( '', ( 0.000000000000000, 0.000000000000000, -1.00000000000000 ) );
#332 = CARTESIAN_POINT( '', ( 0.000000000000000, 0.000000000000000, 0.000000000000000 ) );
#333 = DIRECTION( '', ( 1.00000000000000, -0.000000000000000, 0.000000000000000 ) );
#334 = DIRECTION( '', ( 0.000000000000000, 0.000000000000000, -1.00000000000000 ) );
#335 = SURFACE_STYLE_FILL_AREA( #349 );
#336 = ORIENTED_EDGE( '', *, *, #63, .T. );
#337 = ORIENTED_EDGE( '', *, *, #85, .T. );
#338 = ORIENTED_EDGE( '', *, *, #69, .T. );
#339 = ORIENTED_EDGE( '', *, *, #51, .T. );
#340 = CARTESIAN_POINT( '', ( 0.000000000000000, 0.000000000000000, 0.000000000000000 ) );
#341 = DIRECTION( '', ( -1.00000000000000, -0.000000000000000, -0.000000000000000 ) );
#342 = DIRECTION( '', ( 0.000000000000000, 0.000000000000000, -1.00000000000000 ) );
#343 = FILL_AREA_STYLE( '', ( #350 ) );
#344 = FILL_AREA_STYLE( '', ( #351 ) );
#345 = FILL_AREA_STYLE( '', ( #352 ) );
#346 = FILL_AREA_STYLE( '', ( #353 ) );
#347 = FILL_AREA_STYLE( '', ( #354 ) );
#348 = FILL_AREA_STYLE( '', ( #355 ) );
#349 = FILL_AREA_STYLE( '', ( #356 ) );
#350 = FILL_AREA_STYLE_COLOUR( '', #357 );
#351 = FILL_AREA_STYLE_COLOUR( '', #358 );
#352 = FILL_AREA_STYLE_COLOUR( '', #359 );
#353 = FILL_AREA_STYLE_COLOUR( '', #360 );
#354 = FILL_AREA_STYLE_COLOUR( '', #361 );
#355 = FILL_AREA_STYLE_COLOUR( '', #362 );
#356 = FILL_AREA_STYLE_COLOUR( '', #363 );
#357 = COLOUR_RGB( '', 0.689999997615810, 0.689999997615810, 0.689999997615810 );
#358 = COLOUR_RGB( '', 0.689999997615810, 0.689999997615810, 0.689999997615810 );
#359 = COLOUR_RGB( '', 0.689999997615810, 0.689999997615810, 0.689999997615810 );
#360 = COLOUR_RGB( '', 0.689999997615810, 0.689999997615810, 0.689999997615810 );
#361 = COLOUR_RGB( '', 0.689999997615810, 0.689999997615810, 0.689999997615810 );
#362 = COLOUR_RGB( '', 0.689999997615810, 0.689999997615810, 0.689999997615810 );
#363 = COLOUR_RGB( '', 0.689999997615810, 0.689999997615810, 0.689999997615810 );
ENDSEC;
END-ISO-10303-21;
