ISO-10303-21;
HEADER;
/* Generated by software containing ST-Developer
 * from STEP Tools, Inc. (www.steptools.com) 
 */

FILE_DESCRIPTION(
/* description */ (''),
/* implementation_level */ '2;1');

FILE_NAME(
/* name */ 'C:\\Users\\Gabriele\\Desktop\\catalogo\\TR40\\TR40160L.stp',

/* time_stamp */ '2016-10-17T15:15:18+02:00',
/* author */ ('Gabriele'),
/* organization */ (''),
/* preprocessor_version */ 'ST-DEVELOPER v16.5',
/* originating_system */ 'Autodesk Inventor 2017',
/* authorisation */ '');

FILE_SCHEMA (('AUTOMOTIVE_DESIGN { 1 0 10303 214 3 1 1 }'));
ENDSEC;

DATA;
#10=MECHANICAL_DESIGN_GEOMETRIC_PRESENTATION_REPRESENTATION('',(#13),#481);
#11=SHAPE_REPRESENTATION_RELATIONSHIP('SRR','None',#490,#12);
#12=ADVANCED_BREP_SHAPE_REPRESENTATION('',(#14),#480);
#13=STYLED_ITEM('',(#499),#14);
#14=MANIFOLD_SOLID_BREP('Solido1',#200);
#15=B_SPLINE_CURVE_WITH_KNOTS('',3,(#333,#334,#335,#336,#337,#338,#339,
#340,#341,#342,#343,#344,#345,#346,#347,#348,#349,#350,#351,#352,#353,#354,
#355,#356,#357,#358,#359,#360,#361,#362,#363,#364,#365,#366,#367,#368,#369,
#370,#371,#372,#373,#374,#375,#376,#377,#378,#379,#380,#381,#382,#383,#384,
#385,#386,#387,#388,#389,#390,#391,#392,#393,#394,#395,#396,#397,#398),
 .UNSPECIFIED.,.T.,.F.,(4,2,2,2,2,2,2,2,2,2,2,2,2,2,2,2,2,2,2,2,2,2,2,2,
2,2,2,2,2,2,2,2,4),(0.,1.06906495587082,2.13812991174163,3.20719486761245,
4.27625982348326,5.33190191980963,6.387544016136,7.44318611246237,8.49882820878874,
9.55447030511511,10.6101124014415,11.6657544977678,12.7213965940942,13.790461549965,
14.8595265058358,15.9285914617067,16.9976564175775,18.0667213734483,19.1357863293191,
20.2048512851899,21.2739162410607,22.3295583373871,23.3852004337135,24.4408425300398,
25.4964846263662,26.5521267226926,27.607768819019,28.6634109153453,29.7190530116717,
30.7881179675425,31.8571829234133,32.9262478792841,33.9953128351549),
 .UNSPECIFIED.);
#16=B_SPLINE_CURVE_WITH_KNOTS('',3,(#409,#410,#411,#412,#413,#414,#415,
#416,#417,#418,#419,#420,#421,#422,#423,#424,#425,#426,#427,#428,#429,#430,
#431,#432,#433,#434,#435,#436,#437,#438,#439,#440,#441,#442,#443,#444,#445,
#446,#447,#448,#449,#450,#451,#452,#453,#454,#455,#456,#457,#458,#459,#460,
#461,#462,#463,#464,#465,#466,#467,#468,#469,#470,#471,#472,#473,#474),
 .UNSPECIFIED.,.T.,.F.,(4,2,2,2,2,2,2,2,2,2,2,2,2,2,2,2,2,2,2,2,2,2,2,2,
2,2,2,2,2,2,2,2,4),(0.,1.28212311042286,2.56424622084572,3.84636933126858,
5.12849244169144,6.39216109686872,7.65582975204599,8.91949840722327,10.1831670624006,
11.4468357175778,12.7105043727551,13.9741730279324,15.2378416831097,16.5199647935325,
17.8020879039554,19.0842110143782,20.3663341248011,21.648457235224,22.9305803456468,
24.2127034560697,25.4948265664925,26.7584952216698,28.0221638768471,29.2858325320244,
30.5495011872017,31.8131698423789,33.0768384975562,34.3405071527335,35.6041758079108,
36.8862989183336,38.1684220287565,39.4505451391794,40.7326682496022),
 .UNSPECIFIED.);
#17=PLANE('',#207);
#18=PLANE('',#214);
#19=PLANE('',#221);
#20=PLANE('',#228);
#21=PLANE('',#231);
#22=PLANE('',#232);
#23=CYLINDRICAL_SURFACE('',#205,80.);
#24=CYLINDRICAL_SURFACE('',#212,80.);
#25=CYLINDRICAL_SURFACE('',#219,55.);
#26=CYLINDRICAL_SURFACE('',#223,54.);
#27=CYLINDRICAL_SURFACE('',#225,79.);
#28=CYLINDRICAL_SURFACE('',#229,64.5);
#29=CYLINDRICAL_SURFACE('',#230,92.);
#30=FACE_BOUND('',#65,.T.);
#31=FACE_BOUND('',#67,.T.);
#32=FACE_BOUND('',#69,.T.);
#33=FACE_BOUND('',#71,.T.);
#34=FACE_BOUND('',#73,.T.);
#35=FACE_BOUND('',#75,.T.);
#36=FACE_BOUND('',#77,.T.);
#37=FACE_BOUND('',#79,.T.);
#38=FACE_BOUND('',#81,.T.);
#39=FACE_BOUND('',#83,.T.);
#40=FACE_BOUND('',#85,.T.);
#41=FACE_BOUND('',#86,.T.);
#42=FACE_BOUND('',#88,.T.);
#43=FACE_BOUND('',#90,.T.);
#44=FACE_BOUND('',#92,.T.);
#45=FACE_BOUND('',#93,.T.);
#46=FACE_BOUND('',#95,.T.);
#47=FACE_BOUND('',#97,.T.);
#48=FACE_OUTER_BOUND('',#64,.T.);
#49=FACE_OUTER_BOUND('',#66,.T.);
#50=FACE_OUTER_BOUND('',#68,.T.);
#51=FACE_OUTER_BOUND('',#70,.T.);
#52=FACE_OUTER_BOUND('',#72,.T.);
#53=FACE_OUTER_BOUND('',#74,.T.);
#54=FACE_OUTER_BOUND('',#76,.T.);
#55=FACE_OUTER_BOUND('',#78,.T.);
#56=FACE_OUTER_BOUND('',#80,.T.);
#57=FACE_OUTER_BOUND('',#82,.T.);
#58=FACE_OUTER_BOUND('',#84,.T.);
#59=FACE_OUTER_BOUND('',#87,.T.);
#60=FACE_OUTER_BOUND('',#89,.T.);
#61=FACE_OUTER_BOUND('',#91,.T.);
#62=FACE_OUTER_BOUND('',#94,.T.);
#63=FACE_OUTER_BOUND('',#96,.T.);
#64=EDGE_LOOP('',(#147));
#65=EDGE_LOOP('',(#148));
#66=EDGE_LOOP('',(#149));
#67=EDGE_LOOP('',(#150));
#68=EDGE_LOOP('',(#151));
#69=EDGE_LOOP('',(#152));
#70=EDGE_LOOP('',(#153));
#71=EDGE_LOOP('',(#154));
#72=EDGE_LOOP('',(#155));
#73=EDGE_LOOP('',(#156));
#74=EDGE_LOOP('',(#157));
#75=EDGE_LOOP('',(#158));
#76=EDGE_LOOP('',(#159));
#77=EDGE_LOOP('',(#160));
#78=EDGE_LOOP('',(#161));
#79=EDGE_LOOP('',(#162));
#80=EDGE_LOOP('',(#163));
#81=EDGE_LOOP('',(#164));
#82=EDGE_LOOP('',(#165));
#83=EDGE_LOOP('',(#166));
#84=EDGE_LOOP('',(#167));
#85=EDGE_LOOP('',(#168));
#86=EDGE_LOOP('',(#169));
#87=EDGE_LOOP('',(#170));
#88=EDGE_LOOP('',(#171));
#89=EDGE_LOOP('',(#172));
#90=EDGE_LOOP('',(#173));
#91=EDGE_LOOP('',(#174));
#92=EDGE_LOOP('',(#175));
#93=EDGE_LOOP('',(#176));
#94=EDGE_LOOP('',(#177));
#95=EDGE_LOOP('',(#178));
#96=EDGE_LOOP('',(#179));
#97=EDGE_LOOP('',(#180));
#98=CIRCLE('',#203,80.);
#99=CIRCLE('',#204,80.5);
#100=CIRCLE('',#206,80.);
#101=CIRCLE('',#208,92.);
#102=CIRCLE('',#210,80.);
#103=CIRCLE('',#211,80.5);
#104=CIRCLE('',#213,80.);
#105=CIRCLE('',#215,92.);
#106=CIRCLE('',#217,55.);
#107=CIRCLE('',#218,55.5);
#108=CIRCLE('',#220,55.);
#109=CIRCLE('',#222,64.5);
#110=CIRCLE('',#224,54.);
#111=CIRCLE('',#226,79.);
#112=CIRCLE('',#227,79.);
#113=VERTEX_POINT('',#299);
#114=VERTEX_POINT('',#301);
#115=VERTEX_POINT('',#304);
#116=VERTEX_POINT('',#307);
#117=VERTEX_POINT('',#310);
#118=VERTEX_POINT('',#312);
#119=VERTEX_POINT('',#315);
#120=VERTEX_POINT('',#318);
#121=VERTEX_POINT('',#321);
#122=VERTEX_POINT('',#323);
#123=VERTEX_POINT('',#326);
#124=VERTEX_POINT('',#329);
#125=VERTEX_POINT('',#332);
#126=VERTEX_POINT('',#399);
#127=VERTEX_POINT('',#402);
#128=VERTEX_POINT('',#404);
#129=VERTEX_POINT('',#408);
#130=EDGE_CURVE('',#113,#113,#98,.T.);
#131=EDGE_CURVE('',#114,#114,#99,.T.);
#132=EDGE_CURVE('',#115,#115,#100,.T.);
#133=EDGE_CURVE('',#116,#116,#101,.T.);
#134=EDGE_CURVE('',#117,#117,#102,.T.);
#135=EDGE_CURVE('',#118,#118,#103,.T.);
#136=EDGE_CURVE('',#119,#119,#104,.T.);
#137=EDGE_CURVE('',#120,#120,#105,.T.);
#138=EDGE_CURVE('',#121,#121,#106,.T.);
#139=EDGE_CURVE('',#122,#122,#107,.T.);
#140=EDGE_CURVE('',#123,#123,#108,.T.);
#141=EDGE_CURVE('',#124,#124,#109,.T.);
#142=EDGE_CURVE('',#125,#125,#15,.T.);
#143=EDGE_CURVE('',#126,#126,#110,.T.);
#144=EDGE_CURVE('',#127,#127,#111,.T.);
#145=EDGE_CURVE('',#128,#128,#112,.T.);
#146=EDGE_CURVE('',#129,#129,#16,.T.);
#147=ORIENTED_EDGE('',*,*,#130,.T.);
#148=ORIENTED_EDGE('',*,*,#131,.T.);
#149=ORIENTED_EDGE('',*,*,#132,.T.);
#150=ORIENTED_EDGE('',*,*,#130,.F.);
#151=ORIENTED_EDGE('',*,*,#133,.T.);
#152=ORIENTED_EDGE('',*,*,#131,.F.);
#153=ORIENTED_EDGE('',*,*,#134,.T.);
#154=ORIENTED_EDGE('',*,*,#135,.T.);
#155=ORIENTED_EDGE('',*,*,#136,.F.);
#156=ORIENTED_EDGE('',*,*,#134,.F.);
#157=ORIENTED_EDGE('',*,*,#137,.T.);
#158=ORIENTED_EDGE('',*,*,#135,.F.);
#159=ORIENTED_EDGE('',*,*,#138,.T.);
#160=ORIENTED_EDGE('',*,*,#139,.T.);
#161=ORIENTED_EDGE('',*,*,#140,.T.);
#162=ORIENTED_EDGE('',*,*,#138,.F.);
#163=ORIENTED_EDGE('',*,*,#141,.F.);
#164=ORIENTED_EDGE('',*,*,#139,.F.);
#165=ORIENTED_EDGE('',*,*,#142,.F.);
#166=ORIENTED_EDGE('',*,*,#143,.F.);
#167=ORIENTED_EDGE('',*,*,#144,.F.);
#168=ORIENTED_EDGE('',*,*,#142,.T.);
#169=ORIENTED_EDGE('',*,*,#145,.F.);
#170=ORIENTED_EDGE('',*,*,#140,.F.);
#171=ORIENTED_EDGE('',*,*,#143,.T.);
#172=ORIENTED_EDGE('',*,*,#141,.T.);
#173=ORIENTED_EDGE('',*,*,#146,.F.);
#174=ORIENTED_EDGE('',*,*,#133,.F.);
#175=ORIENTED_EDGE('',*,*,#137,.F.);
#176=ORIENTED_EDGE('',*,*,#146,.T.);
#177=ORIENTED_EDGE('',*,*,#136,.T.);
#178=ORIENTED_EDGE('',*,*,#145,.T.);
#179=ORIENTED_EDGE('',*,*,#132,.F.);
#180=ORIENTED_EDGE('',*,*,#144,.T.);
#181=TOROIDAL_SURFACE('',#202,80.5,0.5);
#182=TOROIDAL_SURFACE('',#209,80.5,0.5);
#183=TOROIDAL_SURFACE('',#216,55.5,0.5);
#184=ADVANCED_FACE('',(#48,#30),#181,.T.);
#185=ADVANCED_FACE('',(#49,#31),#23,.F.);
#186=ADVANCED_FACE('',(#50,#32),#17,.T.);
#187=ADVANCED_FACE('',(#51,#33),#182,.T.);
#188=ADVANCED_FACE('',(#52,#34),#24,.F.);
#189=ADVANCED_FACE('',(#53,#35),#18,.F.);
#190=ADVANCED_FACE('',(#54,#36),#183,.T.);
#191=ADVANCED_FACE('',(#55,#37),#25,.F.);
#192=ADVANCED_FACE('',(#56,#38),#19,.T.);
#193=ADVANCED_FACE('',(#57,#39),#26,.F.);
#194=ADVANCED_FACE('',(#58,#40,#41),#27,.F.);
#195=ADVANCED_FACE('',(#59,#42),#20,.T.);
#196=ADVANCED_FACE('',(#60,#43),#28,.T.);
#197=ADVANCED_FACE('',(#61,#44,#45),#29,.T.);
#198=ADVANCED_FACE('',(#62,#46),#21,.F.);
#199=ADVANCED_FACE('',(#63,#47),#22,.T.);
#200=CLOSED_SHELL('',(#184,#185,#186,#187,#188,#189,#190,#191,#192,#193,
#194,#195,#196,#197,#198,#199));
#201=AXIS2_PLACEMENT_3D('placement',#297,#233,#234);
#202=AXIS2_PLACEMENT_3D('',#298,#235,#236);
#203=AXIS2_PLACEMENT_3D('',#300,#237,#238);
#204=AXIS2_PLACEMENT_3D('',#302,#239,#240);
#205=AXIS2_PLACEMENT_3D('',#303,#241,#242);
#206=AXIS2_PLACEMENT_3D('',#305,#243,#244);
#207=AXIS2_PLACEMENT_3D('',#306,#245,#246);
#208=AXIS2_PLACEMENT_3D('',#308,#247,#248);
#209=AXIS2_PLACEMENT_3D('',#309,#249,#250);
#210=AXIS2_PLACEMENT_3D('',#311,#251,#252);
#211=AXIS2_PLACEMENT_3D('',#313,#253,#254);
#212=AXIS2_PLACEMENT_3D('',#314,#255,#256);
#213=AXIS2_PLACEMENT_3D('',#316,#257,#258);
#214=AXIS2_PLACEMENT_3D('',#317,#259,#260);
#215=AXIS2_PLACEMENT_3D('',#319,#261,#262);
#216=AXIS2_PLACEMENT_3D('',#320,#263,#264);
#217=AXIS2_PLACEMENT_3D('',#322,#265,#266);
#218=AXIS2_PLACEMENT_3D('',#324,#267,#268);
#219=AXIS2_PLACEMENT_3D('',#325,#269,#270);
#220=AXIS2_PLACEMENT_3D('',#327,#271,#272);
#221=AXIS2_PLACEMENT_3D('',#328,#273,#274);
#222=AXIS2_PLACEMENT_3D('',#330,#275,#276);
#223=AXIS2_PLACEMENT_3D('',#331,#277,#278);
#224=AXIS2_PLACEMENT_3D('',#400,#279,#280);
#225=AXIS2_PLACEMENT_3D('',#401,#281,#282);
#226=AXIS2_PLACEMENT_3D('',#403,#283,#284);
#227=AXIS2_PLACEMENT_3D('',#405,#285,#286);
#228=AXIS2_PLACEMENT_3D('',#406,#287,#288);
#229=AXIS2_PLACEMENT_3D('',#407,#289,#290);
#230=AXIS2_PLACEMENT_3D('',#475,#291,#292);
#231=AXIS2_PLACEMENT_3D('',#476,#293,#294);
#232=AXIS2_PLACEMENT_3D('',#477,#295,#296);
#233=DIRECTION('axis',(0.,0.,1.));
#234=DIRECTION('refdir',(1.,0.,0.));
#235=DIRECTION('center_axis',(0.,0.,-1.));
#236=DIRECTION('ref_axis',(-1.,0.,0.));
#237=DIRECTION('center_axis',(0.,0.,-1.));
#238=DIRECTION('ref_axis',(-1.,0.,0.));
#239=DIRECTION('center_axis',(0.,0.,1.));
#240=DIRECTION('ref_axis',(-1.,0.,0.));
#241=DIRECTION('center_axis',(0.,0.,-1.));
#242=DIRECTION('ref_axis',(-1.,0.,0.));
#243=DIRECTION('center_axis',(0.,0.,-1.));
#244=DIRECTION('ref_axis',(-1.,0.,0.));
#245=DIRECTION('center_axis',(0.,0.,1.));
#246=DIRECTION('ref_axis',(1.,0.,0.));
#247=DIRECTION('center_axis',(0.,0.,1.));
#248=DIRECTION('ref_axis',(-1.,0.,0.));
#249=DIRECTION('center_axis',(0.,0.,1.));
#250=DIRECTION('ref_axis',(1.,0.,0.));
#251=DIRECTION('center_axis',(0.,0.,1.));
#252=DIRECTION('ref_axis',(-1.,0.,0.));
#253=DIRECTION('center_axis',(0.,0.,-1.));
#254=DIRECTION('ref_axis',(-1.,0.,0.));
#255=DIRECTION('center_axis',(0.,0.,-1.));
#256=DIRECTION('ref_axis',(-1.,0.,0.));
#257=DIRECTION('center_axis',(0.,0.,-1.));
#258=DIRECTION('ref_axis',(-1.,0.,0.));
#259=DIRECTION('center_axis',(0.,0.,1.));
#260=DIRECTION('ref_axis',(1.,0.,0.));
#261=DIRECTION('center_axis',(0.,0.,-1.));
#262=DIRECTION('ref_axis',(-1.,0.,0.));
#263=DIRECTION('center_axis',(0.,-1.,0.));
#264=DIRECTION('ref_axis',(0.,0.,-1.));
#265=DIRECTION('center_axis',(0.,-1.,0.));
#266=DIRECTION('ref_axis',(-1.,0.,0.));
#267=DIRECTION('center_axis',(0.,1.,0.));
#268=DIRECTION('ref_axis',(-1.,0.,0.));
#269=DIRECTION('center_axis',(0.,-1.,0.));
#270=DIRECTION('ref_axis',(-1.,0.,0.));
#271=DIRECTION('center_axis',(0.,-1.,0.));
#272=DIRECTION('ref_axis',(-1.,0.,0.));
#273=DIRECTION('center_axis',(0.,1.,0.));
#274=DIRECTION('ref_axis',(0.,0.,1.));
#275=DIRECTION('center_axis',(0.,-1.,0.));
#276=DIRECTION('ref_axis',(1.,0.,0.));
#277=DIRECTION('center_axis',(0.,-1.,0.));
#278=DIRECTION('ref_axis',(-1.,0.,0.));
#279=DIRECTION('center_axis',(0.,-1.,0.));
#280=DIRECTION('ref_axis',(-1.,0.,0.));
#281=DIRECTION('center_axis',(0.,0.,1.));
#282=DIRECTION('ref_axis',(1.,0.,0.));
#283=DIRECTION('center_axis',(0.,0.,-1.));
#284=DIRECTION('ref_axis',(1.,0.,0.));
#285=DIRECTION('center_axis',(0.,0.,1.));
#286=DIRECTION('ref_axis',(1.,0.,0.));
#287=DIRECTION('center_axis',(0.,1.,0.));
#288=DIRECTION('ref_axis',(0.,0.,1.));
#289=DIRECTION('center_axis',(0.,-1.,0.));
#290=DIRECTION('ref_axis',(1.,0.,0.));
#291=DIRECTION('center_axis',(0.,0.,1.));
#292=DIRECTION('ref_axis',(-1.,0.,0.));
#293=DIRECTION('center_axis',(0.,0.,1.));
#294=DIRECTION('ref_axis',(1.,0.,0.));
#295=DIRECTION('center_axis',(0.,0.,1.));
#296=DIRECTION('ref_axis',(1.,0.,0.));
#297=CARTESIAN_POINT('',(0.,0.,0.));
#298=CARTESIAN_POINT('Origin',(0.,0.,167.5));
#299=CARTESIAN_POINT('',(80.,-9.79717439317883E-15,167.5));
#300=CARTESIAN_POINT('Origin',(0.,0.,167.5));
#301=CARTESIAN_POINT('',(80.5,9.8584067331362E-15,168.));
#302=CARTESIAN_POINT('Origin',(0.,0.,168.));
#303=CARTESIAN_POINT('Origin',(0.,0.,168.));
#304=CARTESIAN_POINT('',(80.,9.79717439317883E-15,82.));
#305=CARTESIAN_POINT('Origin',(0.,0.,82.));
#306=CARTESIAN_POINT('Origin',(-3.51332608137565E-15,0.,168.));
#307=CARTESIAN_POINT('',(92.,1.12667505521556E-14,168.));
#308=CARTESIAN_POINT('Origin',(0.,0.,168.));
#309=CARTESIAN_POINT('Origin',(0.,0.,-167.5));
#310=CARTESIAN_POINT('',(80.,9.79717439317883E-15,-167.5));
#311=CARTESIAN_POINT('Origin',(0.,0.,-167.5));
#312=CARTESIAN_POINT('',(80.5,-9.8584067331362E-15,-168.));
#313=CARTESIAN_POINT('Origin',(0.,0.,-168.));
#314=CARTESIAN_POINT('Origin',(0.,0.,-168.));
#315=CARTESIAN_POINT('',(80.,9.79717439317883E-15,-82.));
#316=CARTESIAN_POINT('Origin',(0.,0.,-82.));
#317=CARTESIAN_POINT('Origin',(-3.51332608137565E-15,0.,-168.));
#318=CARTESIAN_POINT('',(92.,1.12667505521556E-14,-168.));
#319=CARTESIAN_POINT('Origin',(0.,0.,-168.));
#320=CARTESIAN_POINT('Origin',(0.,142.5,0.));
#321=CARTESIAN_POINT('',(55.,142.5,6.73555739531044E-15));
#322=CARTESIAN_POINT('Origin',(0.,142.5,0.));
#323=CARTESIAN_POINT('',(55.5,143.,-6.79678973526781E-15));
#324=CARTESIAN_POINT('Origin',(0.,143.,0.));
#325=CARTESIAN_POINT('Origin',(0.,143.,0.));
#326=CARTESIAN_POINT('',(55.,82.,-6.73555739531044E-15));
#327=CARTESIAN_POINT('Origin',(0.,82.,0.));
#328=CARTESIAN_POINT('Origin',(6.16633087748822E-15,143.,9.18013870491085E-16));
#329=CARTESIAN_POINT('',(-64.5,143.,7.89897185450043E-15));
#330=CARTESIAN_POINT('Origin',(0.,143.,0.));
#331=CARTESIAN_POINT('Origin',(0.,82.,0.));
#332=CARTESIAN_POINT('',(54.,57.662812973354,0.));
#333=CARTESIAN_POINT('Ctrl Pts',(54.,57.662812973354,0.));
#334=CARTESIAN_POINT('Ctrl Pts',(54.,57.662812973354,-3.56354985290272));
#335=CARTESIAN_POINT('Ctrl Pts',(53.6426396894154,58.0034275414014,-7.17598076904305));
#336=CARTESIAN_POINT('Ctrl Pts',(52.2104455977978,59.2958662978115,-14.2512060546622));
#337=CARTESIAN_POINT('Ctrl Pts',(51.1364916695496,60.2433357496038,-17.714973280682));
#338=CARTESIAN_POINT('Ctrl Pts',(48.3572391816679,62.4962158274845,-24.2969002947835));
#339=CARTESIAN_POINT('Ctrl Pts',(46.6495503180583,63.8000619342156,-27.4220546234717));
#340=CARTESIAN_POINT('Ctrl Pts',(42.7370004436507,66.4844135144134,-33.1918426520246));
#341=CARTESIAN_POINT('Ctrl Pts',(40.5310382314014,67.8632753510663,-35.8364941367458));
#342=CARTESIAN_POINT('Ctrl Pts',(35.8659657818791,70.4389260455165,-40.501566586268));
#343=CARTESIAN_POINT('Ctrl Pts',(33.2373419806152,71.7359633166919,-42.7018979309096));
#344=CARTESIAN_POINT('Ctrl Pts',(27.4659288106069,74.1376563520048,-46.623982502745));
#345=CARTESIAN_POINT('Ctrl Pts',(24.3227498507323,75.2410109685889,-48.3459590785074));
#346=CARTESIAN_POINT('Ctrl Pts',(17.6982930010286,77.0686471547571,-51.143899488337));
#347=CARTESIAN_POINT('Ctrl Pts',(14.2098783243448,77.7938197597105,-52.2221712658716));
#348=CARTESIAN_POINT('Ctrl Pts',(7.12023234967866,78.7597697188892,-53.6505182184043));
#349=CARTESIAN_POINT('Ctrl Pts',(3.51880698775456,79.,-54.));
#350=CARTESIAN_POINT('Ctrl Pts',(-3.51880698775457,79.,-54.));
#351=CARTESIAN_POINT('Ctrl Pts',(-7.12023234967868,78.7597697188892,-53.6505182184043));
#352=CARTESIAN_POINT('Ctrl Pts',(-14.2098783243448,77.7938197597105,-52.2221712658716));
#353=CARTESIAN_POINT('Ctrl Pts',(-17.6982930010286,77.0686471547571,-51.143899488337));
#354=CARTESIAN_POINT('Ctrl Pts',(-24.3227498507323,75.2410109685889,-48.3459590785074));
#355=CARTESIAN_POINT('Ctrl Pts',(-27.4659288106069,74.1376563520048,-46.623982502745));
#356=CARTESIAN_POINT('Ctrl Pts',(-33.2373419806152,71.7359633166919,-42.7018979309096));
#357=CARTESIAN_POINT('Ctrl Pts',(-35.8659657818791,70.4389260455164,-40.501566586268));
#358=CARTESIAN_POINT('Ctrl Pts',(-40.5310382314014,67.8632753510663,-35.8364941367458));
#359=CARTESIAN_POINT('Ctrl Pts',(-42.7370004436507,66.4844135144134,-33.1918426520246));
#360=CARTESIAN_POINT('Ctrl Pts',(-46.6495503180583,63.8000619342156,-27.4220546234717));
#361=CARTESIAN_POINT('Ctrl Pts',(-48.3572391816679,62.4962158274845,-24.2969002947835));
#362=CARTESIAN_POINT('Ctrl Pts',(-51.1364916695496,60.2433357496038,-17.714973280682));
#363=CARTESIAN_POINT('Ctrl Pts',(-52.2104455977978,59.2958662978115,-14.2512060546622));
#364=CARTESIAN_POINT('Ctrl Pts',(-53.6426396894154,58.0034275414014,-7.17598076904305));
#365=CARTESIAN_POINT('Ctrl Pts',(-54.,57.662812973354,-3.56354985290272));
#366=CARTESIAN_POINT('Ctrl Pts',(-54.,57.662812973354,3.56354985290272));
#367=CARTESIAN_POINT('Ctrl Pts',(-53.6426396894154,58.0034275414014,7.17598076904305));
#368=CARTESIAN_POINT('Ctrl Pts',(-52.2104455977978,59.2958662978115,14.2512060546622));
#369=CARTESIAN_POINT('Ctrl Pts',(-51.1364916695497,60.2433357496038,17.714973280682));
#370=CARTESIAN_POINT('Ctrl Pts',(-48.3572391816679,62.4962158274845,24.2969002947834));
#371=CARTESIAN_POINT('Ctrl Pts',(-46.6495503180583,63.8000619342156,27.4220546234717));
#372=CARTESIAN_POINT('Ctrl Pts',(-42.7370004436507,66.4844135144134,33.1918426520246));
#373=CARTESIAN_POINT('Ctrl Pts',(-40.5310382314014,67.8632753510662,35.8364941367458));
#374=CARTESIAN_POINT('Ctrl Pts',(-35.8659657818791,70.4389260455164,40.5015665862681));
#375=CARTESIAN_POINT('Ctrl Pts',(-33.2373419806152,71.7359633166919,42.7018979309096));
#376=CARTESIAN_POINT('Ctrl Pts',(-27.4659288106069,74.1376563520048,46.623982502745));
#377=CARTESIAN_POINT('Ctrl Pts',(-24.3227498507323,75.2410109685889,48.3459590785074));
#378=CARTESIAN_POINT('Ctrl Pts',(-17.6982930010286,77.0686471547571,51.143899488337));
#379=CARTESIAN_POINT('Ctrl Pts',(-14.2098783243448,77.7938197597105,52.2221712658716));
#380=CARTESIAN_POINT('Ctrl Pts',(-7.12023234967867,78.7597697188892,53.6505182184043));
#381=CARTESIAN_POINT('Ctrl Pts',(-3.51880698775457,79.,54.));
#382=CARTESIAN_POINT('Ctrl Pts',(3.51880698775456,79.,54.));
#383=CARTESIAN_POINT('Ctrl Pts',(7.12023234967867,78.7597697188892,53.6505182184043));
#384=CARTESIAN_POINT('Ctrl Pts',(14.2098783243448,77.7938197597105,52.2221712658716));
#385=CARTESIAN_POINT('Ctrl Pts',(17.6982930010286,77.0686471547571,51.143899488337));
#386=CARTESIAN_POINT('Ctrl Pts',(24.3227498507323,75.2410109685889,48.3459590785074));
#387=CARTESIAN_POINT('Ctrl Pts',(27.4659288106069,74.1376563520048,46.623982502745));
#388=CARTESIAN_POINT('Ctrl Pts',(33.2373419806152,71.7359633166919,42.7018979309096));
#389=CARTESIAN_POINT('Ctrl Pts',(35.8659657818791,70.4389260455165,40.5015665862681));
#390=CARTESIAN_POINT('Ctrl Pts',(40.5310382314014,67.8632753510663,35.8364941367458));
#391=CARTESIAN_POINT('Ctrl Pts',(42.7370004436507,66.4844135144134,33.1918426520246));
#392=CARTESIAN_POINT('Ctrl Pts',(46.6495503180583,63.8000619342156,27.4220546234717));
#393=CARTESIAN_POINT('Ctrl Pts',(48.3572391816679,62.4962158274845,24.2969002947834));
#394=CARTESIAN_POINT('Ctrl Pts',(51.1364916695497,60.2433357496038,17.714973280682));
#395=CARTESIAN_POINT('Ctrl Pts',(52.2104455977978,59.2958662978115,14.2512060546622));
#396=CARTESIAN_POINT('Ctrl Pts',(53.6426396894154,58.0034275414014,7.17598076904305));
#397=CARTESIAN_POINT('Ctrl Pts',(54.,57.662812973354,3.56354985290272));
#398=CARTESIAN_POINT('Ctrl Pts',(54.,57.662812973354,-1.11022302462516E-15));
#399=CARTESIAN_POINT('',(54.,82.,-6.61309271539571E-15));
#400=CARTESIAN_POINT('Origin',(0.,82.,0.));
#401=CARTESIAN_POINT('Origin',(0.,0.,-82.));
#402=CARTESIAN_POINT('',(-79.,9.67470971326409E-15,82.));
#403=CARTESIAN_POINT('Origin',(0.,0.,82.));
#404=CARTESIAN_POINT('',(-79.,9.67470971326409E-15,-82.));
#405=CARTESIAN_POINT('Origin',(0.,0.,-82.));
#406=CARTESIAN_POINT('Origin',(-4.86761606027648E-15,82.,0.));
#407=CARTESIAN_POINT('Origin',(0.,143.,0.));
#408=CARTESIAN_POINT('',(64.5,65.6029724936302,-2.22044604925031E-15));
#409=CARTESIAN_POINT('Ctrl Pts',(64.5,65.6029724936302,-2.22044604925031E-15));
#410=CARTESIAN_POINT('Ctrl Pts',(64.5,65.6029724936302,4.27374370140953));
#411=CARTESIAN_POINT('Ctrl Pts',(64.0699411702447,66.0336006065717,8.596735270799));
#412=CARTESIAN_POINT('Ctrl Pts',(62.3543886658609,67.6559233864908,17.0526082976355));
#413=CARTESIAN_POINT('Ctrl Pts',(61.0699631055125,68.8417432306864,21.1868324787245));
#414=CARTESIAN_POINT('Ctrl Pts',(57.7503588604909,71.6492923834898,29.0399640338436));
#415=CARTESIAN_POINT('Ctrl Pts',(55.7122784689817,73.2690783577329,32.7671541362684));
#416=CARTESIAN_POINT('Ctrl Pts',(51.0431545349211,76.5951185811932,39.6502299931602));
#417=CARTESIAN_POINT('Ctrl Pts',(48.4107124414892,78.299519669147,42.8060623315754));
#418=CARTESIAN_POINT('Ctrl Pts',(42.8463980699221,81.4757660862324,48.3703767031426));
#419=CARTESIAN_POINT('Ctrl Pts',(39.7127735895688,83.0718066380973,50.9948435878099));
#420=CARTESIAN_POINT('Ctrl Pts',(32.8283395330781,86.0251682222689,55.676553266864));
#421=CARTESIAN_POINT('Ctrl Pts',(29.0770424673105,87.3809615607273,57.7340427839439));
#422=CARTESIAN_POINT('Ctrl Pts',(21.1659663533491,89.6264960919017,61.0794247382503));
#423=CARTESIAN_POINT('Ctrl Pts',(16.9975618680832,90.5173961360715,62.3700913073998));
#424=CARTESIAN_POINT('Ctrl Pts',(8.52081247716491,91.7044811750126,64.080739337463));
#425=CARTESIAN_POINT('Ctrl Pts',(4.21222885059094,92.,64.5));
#426=CARTESIAN_POINT('Ctrl Pts',(-4.21222885059092,92.,64.5));
#427=CARTESIAN_POINT('Ctrl Pts',(-8.52081247716489,91.7044811750126,64.080739337463));
#428=CARTESIAN_POINT('Ctrl Pts',(-16.9975618680831,90.5173961360715,62.3700913073998));
#429=CARTESIAN_POINT('Ctrl Pts',(-21.1659663533491,89.6264960919017,61.0794247382503));
#430=CARTESIAN_POINT('Ctrl Pts',(-29.0770424673105,87.3809615607273,57.7340427839439));
#431=CARTESIAN_POINT('Ctrl Pts',(-32.8283395330781,86.0251682222689,55.6765532668641));
#432=CARTESIAN_POINT('Ctrl Pts',(-39.7127735895688,83.0718066380973,50.9948435878099));
#433=CARTESIAN_POINT('Ctrl Pts',(-42.8463980699221,81.4757660862324,48.3703767031425));
#434=CARTESIAN_POINT('Ctrl Pts',(-48.4107124414892,78.299519669147,42.8060623315754));
#435=CARTESIAN_POINT('Ctrl Pts',(-51.0431545349211,76.5951185811931,39.6502299931602));
#436=CARTESIAN_POINT('Ctrl Pts',(-55.7122784689818,73.2690783577329,32.7671541362684));
#437=CARTESIAN_POINT('Ctrl Pts',(-57.7503588604909,71.6492923834898,29.0399640338436));
#438=CARTESIAN_POINT('Ctrl Pts',(-61.0699631055125,68.8417432306864,21.1868324787245));
#439=CARTESIAN_POINT('Ctrl Pts',(-62.3543886658609,67.6559233864908,17.0526082976355));
#440=CARTESIAN_POINT('Ctrl Pts',(-64.0699411702447,66.0336006065717,8.59673527079899));
#441=CARTESIAN_POINT('Ctrl Pts',(-64.5,65.6029724936302,4.27374370140953));
#442=CARTESIAN_POINT('Ctrl Pts',(-64.5,65.6029724936302,-4.27374370140953));
#443=CARTESIAN_POINT('Ctrl Pts',(-64.0699411702447,66.0336006065717,-8.59673527079899));
#444=CARTESIAN_POINT('Ctrl Pts',(-62.3543886658609,67.6559233864908,-17.0526082976355));
#445=CARTESIAN_POINT('Ctrl Pts',(-61.0699631055126,68.8417432306865,-21.1868324787245));
#446=CARTESIAN_POINT('Ctrl Pts',(-57.750358860491,71.6492923834898,-29.0399640338436));
#447=CARTESIAN_POINT('Ctrl Pts',(-55.7122784689818,73.2690783577329,-32.7671541362684));
#448=CARTESIAN_POINT('Ctrl Pts',(-51.0431545349211,76.5951185811931,-39.6502299931602));
#449=CARTESIAN_POINT('Ctrl Pts',(-48.4107124414892,78.299519669147,-42.8060623315754));
#450=CARTESIAN_POINT('Ctrl Pts',(-42.8463980699221,81.4757660862324,-48.3703767031425));
#451=CARTESIAN_POINT('Ctrl Pts',(-39.7127735895688,83.0718066380973,-50.9948435878099));
#452=CARTESIAN_POINT('Ctrl Pts',(-32.8283395330781,86.0251682222689,-55.6765532668641));
#453=CARTESIAN_POINT('Ctrl Pts',(-29.0770424673105,87.3809615607273,-57.7340427839439));
#454=CARTESIAN_POINT('Ctrl Pts',(-21.1659663533491,89.6264960919018,-61.0794247382503));
#455=CARTESIAN_POINT('Ctrl Pts',(-16.9975618680832,90.5173961360715,-62.3700913073998));
#456=CARTESIAN_POINT('Ctrl Pts',(-8.52081247716492,91.7044811750126,-64.080739337463));
#457=CARTESIAN_POINT('Ctrl Pts',(-4.21222885059095,92.,-64.5));
#458=CARTESIAN_POINT('Ctrl Pts',(4.21222885059092,92.,-64.5));
#459=CARTESIAN_POINT('Ctrl Pts',(8.5208124771649,91.7044811750126,-64.080739337463));
#460=CARTESIAN_POINT('Ctrl Pts',(16.9975618680831,90.5173961360715,-62.3700913073998));
#461=CARTESIAN_POINT('Ctrl Pts',(21.1659663533491,89.6264960919017,-61.0794247382503));
#462=CARTESIAN_POINT('Ctrl Pts',(29.0770424673104,87.3809615607273,-57.7340427839439));
#463=CARTESIAN_POINT('Ctrl Pts',(32.8283395330781,86.025168222269,-55.6765532668641));
#464=CARTESIAN_POINT('Ctrl Pts',(39.7127735895688,83.0718066380973,-50.9948435878099));
#465=CARTESIAN_POINT('Ctrl Pts',(42.8463980699221,81.4757660862324,-48.3703767031426));
#466=CARTESIAN_POINT('Ctrl Pts',(48.4107124414892,78.299519669147,-42.8060623315754));
#467=CARTESIAN_POINT('Ctrl Pts',(51.0431545349211,76.5951185811932,-39.6502299931602));
#468=CARTESIAN_POINT('Ctrl Pts',(55.7122784689818,73.2690783577329,-32.7671541362684));
#469=CARTESIAN_POINT('Ctrl Pts',(57.7503588604909,71.6492923834898,-29.0399640338436));
#470=CARTESIAN_POINT('Ctrl Pts',(61.0699631055125,68.8417432306864,-21.1868324787245));
#471=CARTESIAN_POINT('Ctrl Pts',(62.3543886658609,67.6559233864908,-17.0526082976355));
#472=CARTESIAN_POINT('Ctrl Pts',(64.0699411702447,66.0336006065717,-8.596735270799));
#473=CARTESIAN_POINT('Ctrl Pts',(64.5,65.6029724936302,-4.27374370140953));
#474=CARTESIAN_POINT('Ctrl Pts',(64.5,65.6029724936302,2.22044604925031E-15));
#475=CARTESIAN_POINT('Origin',(0.,0.,0.));
#476=CARTESIAN_POINT('Origin',(-3.77702593176532E-15,0.,-82.));
#477=CARTESIAN_POINT('Origin',(-3.77702593176532E-15,0.,82.));
#478=UNCERTAINTY_MEASURE_WITH_UNIT(LENGTH_MEASURE(0.01),#482,
'DISTANCE_ACCURACY_VALUE',
'Maximum model space distance between geometric entities at asserted c
onnectivities');
#479=UNCERTAINTY_MEASURE_WITH_UNIT(LENGTH_MEASURE(1.E-6),#482,
'DISTANCE_ACCURACY_VALUE',
'Maximum model space distance between geometric entities at asserted c
onnectivities');
#480=(
GEOMETRIC_REPRESENTATION_CONTEXT(3)
GLOBAL_UNCERTAINTY_ASSIGNED_CONTEXT((#478))
GLOBAL_UNIT_ASSIGNED_CONTEXT((#482,#485,#483))
REPRESENTATION_CONTEXT('','3D')
);
#481=(
GEOMETRIC_REPRESENTATION_CONTEXT(3)
GLOBAL_UNCERTAINTY_ASSIGNED_CONTEXT((#479))
GLOBAL_UNIT_ASSIGNED_CONTEXT((#482,#485,#483))
REPRESENTATION_CONTEXT('','3D')
);
#482=(
LENGTH_UNIT()
NAMED_UNIT(*)
SI_UNIT(.MILLI.,.METRE.)
);
#483=(
NAMED_UNIT(*)
SI_UNIT($,.STERADIAN.)
SOLID_ANGLE_UNIT()
);
#484=DIMENSIONAL_EXPONENTS(0.,0.,0.,0.,0.,0.,0.);
#485=(
CONVERSION_BASED_UNIT('degree',#487)
NAMED_UNIT(#484)
PLANE_ANGLE_UNIT()
);
#486=(
NAMED_UNIT(*)
PLANE_ANGLE_UNIT()
SI_UNIT($,.RADIAN.)
);
#487=PLANE_ANGLE_MEASURE_WITH_UNIT(PLANE_ANGLE_MEASURE(0.01745329252),#486);
#488=SHAPE_DEFINITION_REPRESENTATION(#489,#490);
#489=PRODUCT_DEFINITION_SHAPE('',$,#492);
#490=SHAPE_REPRESENTATION('',(#201),#480);
#491=PRODUCT_DEFINITION_CONTEXT('part definition',#496,'design');
#492=PRODUCT_DEFINITION('TR40160L','TR40160L',#493,#491);
#493=PRODUCT_DEFINITION_FORMATION('',$,#498);
#494=PRODUCT_RELATED_PRODUCT_CATEGORY('TR40160L','TR40160L',(#498));
#495=APPLICATION_PROTOCOL_DEFINITION('international standard',
'automotive_design',2009,#496);
#496=APPLICATION_CONTEXT(
'Core Data for Automotive Mechanical Design Process');
#497=PRODUCT_CONTEXT('part definition',#496,'mechanical');
#498=PRODUCT('TR40160L','TR40160L',$,(#497));
#499=PRESENTATION_STYLE_ASSIGNMENT((#500));
#500=SURFACE_STYLE_USAGE(.BOTH.,#501);
#501=SURFACE_SIDE_STYLE('',(#502));
#502=SURFACE_STYLE_FILL_AREA(#503);
#503=FILL_AREA_STYLE('',(#504));
#504=FILL_AREA_STYLE_COLOUR('',#505);
#505=COLOUR_RGB('',0.8,0.8,0.8);
ENDSEC;
END-ISO-10303-21;
