ISO-10303-21;
HEADER;
/* Generated by software containing ST-Developer
 * from STEP Tools, Inc. (www.steptools.com) 
 */

FILE_DESCRIPTION(
/* description */ (''),
/* implementation_level */ '2;1');

FILE_NAME(
/* name */ 
'Q:\\Ric010\\FF7\\FIPlastiCAD\\FIP\\Lavoro\\PVC Fittings\\PVC Fittings
 STEP\\NFV\\NFV038.ipt.stp',
/* time_stamp */ '2013-10-01T14:48:08+02:00',
/* author */ ('bfaro'),
/* organization */ (''),
/* preprocessor_version */ 'ST-DEVELOPER v15.2',
/* originating_system */ 'Autodesk Inventor 2014',
/* authorisation */ '');

FILE_SCHEMA (('AUTOMOTIVE_DESIGN { 1 0 10303 214 3 1 1 }'));
ENDSEC;

DATA;
#10=SHAPE_REPRESENTATION_RELATIONSHIP('SRR','None',#573,#11);
#11=ADVANCED_BREP_SHAPE_REPRESENTATION($,(#326),#564);
#12=LINE($,#538,#24);
#13=LINE($,#540,#25);
#14=LINE($,#542,#26);
#15=LINE($,#544,#27);
#16=LINE($,#546,#28);
#17=LINE($,#547,#29);
#18=LINE($,#549,#30);
#19=LINE($,#550,#31);
#20=LINE($,#552,#32);
#21=LINE($,#554,#33);
#22=LINE($,#556,#34);
#23=LINE($,#558,#35);
#24=VECTOR($,#417,10.3923048454133);
#25=VECTOR($,#418,10.3923048454133);
#26=VECTOR($,#419,10.3923048454133);
#27=VECTOR($,#420,10.3923048454133);
#28=VECTOR($,#421,10.3923048454133);
#29=VECTOR($,#422,10.3923048454133);
#30=VECTOR($,#425,6.07693394917814);
#31=VECTOR($,#426,6.07693394917814);
#32=VECTOR($,#429,6.07693394917814);
#33=VECTOR($,#432,6.07693394917814);
#34=VECTOR($,#435,6.07693394917814);
#35=VECTOR($,#438,6.07693394917814);
#36=PLANE($,#352);
#37=PLANE($,#353);
#38=PLANE($,#354);
#39=PLANE($,#355);
#40=PLANE($,#356);
#41=PLANE($,#357);
#42=PLANE($,#358);
#43=PLANE($,#359);
#44=PLANE($,#360);
#45=PLANE($,#361);
#46=PLANE($,#362);
#47=(
BOUNDED_CURVE()
B_SPLINE_CURVE(2,(#487,#488,#489),.UNSPECIFIED.,.F.,.F.)
B_SPLINE_CURVE_WITH_KNOTS((3,3),(6.35202256676701,11.6901958661478),
 .UNSPECIFIED.)
CURVE()
GEOMETRIC_REPRESENTATION_ITEM()
RATIONAL_B_SPLINE_CURVE((1.,1.04545881585954,1.01451140535821))
REPRESENTATION_ITEM($)
);
#48=(
BOUNDED_CURVE()
B_SPLINE_CURVE(2,(#491,#492,#493),.UNSPECIFIED.,.F.,.F.)
B_SPLINE_CURVE_WITH_KNOTS((3,3),(1.01384926738619,6.35202256676701),
 .UNSPECIFIED.)
CURVE()
GEOMETRIC_REPRESENTATION_ITEM()
RATIONAL_B_SPLINE_CURVE((1.01451140535821,1.04545881585952,1.))
REPRESENTATION_ITEM($)
);
#49=(
BOUNDED_CURVE()
B_SPLINE_CURVE(2,(#495,#496,#497),.UNSPECIFIED.,.F.,.F.)
B_SPLINE_CURVE_WITH_KNOTS((3,3),(6.35202256676699,11.6901958661479),
 .UNSPECIFIED.)
CURVE()
GEOMETRIC_REPRESENTATION_ITEM()
RATIONAL_B_SPLINE_CURVE((1.,1.04545881585966,1.01451140535825))
REPRESENTATION_ITEM($)
);
#50=(
BOUNDED_CURVE()
B_SPLINE_CURVE(2,(#499,#500,#501),.UNSPECIFIED.,.F.,.F.)
B_SPLINE_CURVE_WITH_KNOTS((3,3),(1.01384926738607,6.35202256676699),
 .UNSPECIFIED.)
CURVE()
GEOMETRIC_REPRESENTATION_ITEM()
RATIONAL_B_SPLINE_CURVE((1.01451140535825,1.04545881585966,1.))
REPRESENTATION_ITEM($)
);
#51=(
BOUNDED_CURVE()
B_SPLINE_CURVE(2,(#503,#504,#505),.UNSPECIFIED.,.F.,.F.)
B_SPLINE_CURVE_WITH_KNOTS((3,3),(6.35202256676701,11.6901958661478),
 .UNSPECIFIED.)
CURVE()
GEOMETRIC_REPRESENTATION_ITEM()
RATIONAL_B_SPLINE_CURVE((1.,1.04545881585954,1.01451140535821))
REPRESENTATION_ITEM($)
);
#52=(
BOUNDED_CURVE()
B_SPLINE_CURVE(2,(#507,#508,#509),.UNSPECIFIED.,.F.,.F.)
B_SPLINE_CURVE_WITH_KNOTS((3,3),(1.0138492673862,6.35202256676701),
 .UNSPECIFIED.)
CURVE()
GEOMETRIC_REPRESENTATION_ITEM()
RATIONAL_B_SPLINE_CURVE((1.0145114053582,1.04545881585951,1.))
REPRESENTATION_ITEM($)
);
#53=(
BOUNDED_CURVE()
B_SPLINE_CURVE(2,(#511,#512,#513),.UNSPECIFIED.,.F.,.F.)
B_SPLINE_CURVE_WITH_KNOTS((3,3),(6.35202256676704,11.6901958661479),
 .UNSPECIFIED.)
CURVE()
GEOMETRIC_REPRESENTATION_ITEM()
RATIONAL_B_SPLINE_CURVE((1.,1.04545881585954,1.01451140535821))
REPRESENTATION_ITEM($)
);
#54=(
BOUNDED_CURVE()
B_SPLINE_CURVE(2,(#515,#516,#517),.UNSPECIFIED.,.F.,.F.)
B_SPLINE_CURVE_WITH_KNOTS((3,3),(1.01384926738636,6.35202256676704),
 .UNSPECIFIED.)
CURVE()
GEOMETRIC_REPRESENTATION_ITEM()
RATIONAL_B_SPLINE_CURVE((1.01451140535815,1.04545881585933,1.))
REPRESENTATION_ITEM($)
);
#55=(
BOUNDED_CURVE()
B_SPLINE_CURVE(2,(#519,#520,#521),.UNSPECIFIED.,.F.,.F.)
B_SPLINE_CURVE_WITH_KNOTS((3,3),(6.35202256676699,11.6901958661479),
 .UNSPECIFIED.)
CURVE()
GEOMETRIC_REPRESENTATION_ITEM()
RATIONAL_B_SPLINE_CURVE((1.,1.04545881585966,1.01451140535825))
REPRESENTATION_ITEM($)
);
#56=(
BOUNDED_CURVE()
B_SPLINE_CURVE(2,(#523,#524,#525),.UNSPECIFIED.,.F.,.F.)
B_SPLINE_CURVE_WITH_KNOTS((3,3),(1.01384926738609,6.35202256676699),
 .UNSPECIFIED.)
CURVE()
GEOMETRIC_REPRESENTATION_ITEM()
RATIONAL_B_SPLINE_CURVE((1.01451140535825,1.04545881585966,1.))
REPRESENTATION_ITEM($)
);
#57=(
BOUNDED_CURVE()
B_SPLINE_CURVE(2,(#527,#528,#529),.UNSPECIFIED.,.F.,.F.)
B_SPLINE_CURVE_WITH_KNOTS((3,3),(6.352022566767,11.6901958661479),
 .UNSPECIFIED.)
CURVE()
GEOMETRIC_REPRESENTATION_ITEM()
RATIONAL_B_SPLINE_CURVE((1.,1.04545881585962,1.01451140535824))
REPRESENTATION_ITEM($)
);
#58=(
BOUNDED_CURVE()
B_SPLINE_CURVE(2,(#530,#531,#532),.UNSPECIFIED.,.F.,.F.)
B_SPLINE_CURVE_WITH_KNOTS((3,3),(1.01384926738621,6.352022566767),
 .UNSPECIFIED.)
CURVE()
GEOMETRIC_REPRESENTATION_ITEM()
RATIONAL_B_SPLINE_CURVE((1.0145114053582,1.04545881585949,1.))
REPRESENTATION_ITEM($)
);
#59=CONICAL_SURFACE($,#334,5.98276078418978,0.999999999999984);
#60=CONICAL_SURFACE($,#345,6.09239828573688,0.999999999999975);
#61=CONICAL_SURFACE($,#350,10.,74.9999999999997);
#62=CYLINDRICAL_SURFACE($,#331,8.29999999999997);
#63=CYLINDRICAL_SURFACE($,#336,8.79999999999999);
#64=CYLINDRICAL_SURFACE($,#342,8.29999999999997);
#65=CYLINDRICAL_SURFACE($,#347,11.);
#66=CYLINDRICAL_SURFACE($,#351,5.9510122598183);
#67=STYLED_ITEM($,(#582),#305);
#68=STYLED_ITEM($,(#582),#309);
#69=STYLED_ITEM($,(#581),#326);
#70=FACE_BOUND($,#107,.T.);
#71=FACE_BOUND($,#109,.T.);
#72=FACE_BOUND($,#111,.T.);
#73=FACE_BOUND($,#113,.T.);
#74=FACE_BOUND($,#115,.T.);
#75=FACE_BOUND($,#117,.T.);
#76=FACE_BOUND($,#119,.T.);
#77=FACE_BOUND($,#121,.T.);
#78=FACE_BOUND($,#123,.T.);
#79=FACE_BOUND($,#125,.T.);
#80=FACE_BOUND($,#127,.T.);
#81=FACE_BOUND($,#129,.T.);
#82=FACE_BOUND($,#137,.T.);
#83=FACE_BOUND($,#139,.T.);
#84=FACE_BOUND($,#141,.T.);
#85=FACE_OUTER_BOUND($,#106,.T.);
#86=FACE_OUTER_BOUND($,#108,.T.);
#87=FACE_OUTER_BOUND($,#110,.T.);
#88=FACE_OUTER_BOUND($,#112,.T.);
#89=FACE_OUTER_BOUND($,#114,.T.);
#90=FACE_OUTER_BOUND($,#116,.T.);
#91=FACE_OUTER_BOUND($,#118,.T.);
#92=FACE_OUTER_BOUND($,#120,.T.);
#93=FACE_OUTER_BOUND($,#122,.T.);
#94=FACE_OUTER_BOUND($,#124,.T.);
#95=FACE_OUTER_BOUND($,#126,.T.);
#96=FACE_OUTER_BOUND($,#128,.T.);
#97=FACE_OUTER_BOUND($,#130,.T.);
#98=FACE_OUTER_BOUND($,#131,.T.);
#99=FACE_OUTER_BOUND($,#132,.T.);
#100=FACE_OUTER_BOUND($,#133,.T.);
#101=FACE_OUTER_BOUND($,#134,.T.);
#102=FACE_OUTER_BOUND($,#135,.T.);
#103=FACE_OUTER_BOUND($,#136,.T.);
#104=FACE_OUTER_BOUND($,#138,.T.);
#105=FACE_OUTER_BOUND($,#140,.T.);
#106=EDGE_LOOP($,(#226));
#107=EDGE_LOOP($,(#227));
#108=EDGE_LOOP($,(#228));
#109=EDGE_LOOP($,(#229));
#110=EDGE_LOOP($,(#230));
#111=EDGE_LOOP($,(#231));
#112=EDGE_LOOP($,(#232));
#113=EDGE_LOOP($,(#233));
#114=EDGE_LOOP($,(#234));
#115=EDGE_LOOP($,(#235));
#116=EDGE_LOOP($,(#236));
#117=EDGE_LOOP($,(#237));
#118=EDGE_LOOP($,(#238));
#119=EDGE_LOOP($,(#239));
#120=EDGE_LOOP($,(#240));
#121=EDGE_LOOP($,(#241));
#122=EDGE_LOOP($,(#242,#243,#244,#245,#246,#247,#248,#249,#250,#251,#252,
#253));
#123=EDGE_LOOP($,(#254));
#124=EDGE_LOOP($,(#255));
#125=EDGE_LOOP($,(#256));
#126=EDGE_LOOP($,(#257));
#127=EDGE_LOOP($,(#258));
#128=EDGE_LOOP($,(#259,#260,#261,#262,#263,#264));
#129=EDGE_LOOP($,(#265));
#130=EDGE_LOOP($,(#266,#267,#268,#269,#270));
#131=EDGE_LOOP($,(#271,#272,#273,#274,#275));
#132=EDGE_LOOP($,(#276,#277,#278,#279,#280));
#133=EDGE_LOOP($,(#281,#282,#283,#284,#285));
#134=EDGE_LOOP($,(#286,#287,#288,#289,#290));
#135=EDGE_LOOP($,(#291,#292,#293,#294,#295));
#136=EDGE_LOOP($,(#296));
#137=EDGE_LOOP($,(#297));
#138=EDGE_LOOP($,(#298));
#139=EDGE_LOOP($,(#299));
#140=EDGE_LOOP($,(#300));
#141=EDGE_LOOP($,(#301));
#142=CIRCLE($,#329,6.60901701022522);
#143=CIRCLE($,#330,6.10810784417228);
#144=CIRCLE($,#332,8.29999999999998);
#145=CIRCLE($,#333,8.29999999999998);
#146=CIRCLE($,#335,5.9510122598183);
#147=CIRCLE($,#337,8.79999999999999);
#148=CIRCLE($,#338,8.79999999999999);
#149=CIRCLE($,#340,6.60901701022522);
#150=CIRCLE($,#341,6.10810784417228);
#151=CIRCLE($,#343,8.29999999999997);
#152=CIRCLE($,#344,8.29999999999998);
#153=CIRCLE($,#346,5.9510122598183);
#154=CIRCLE($,#348,11.);
#155=CIRCLE($,#349,11.);
#156=VERTEX_POINT($,#449);
#157=VERTEX_POINT($,#451);
#158=VERTEX_POINT($,#454);
#159=VERTEX_POINT($,#456);
#160=VERTEX_POINT($,#459);
#161=VERTEX_POINT($,#462);
#162=VERTEX_POINT($,#464);
#163=VERTEX_POINT($,#467);
#164=VERTEX_POINT($,#469);
#165=VERTEX_POINT($,#472);
#166=VERTEX_POINT($,#474);
#167=VERTEX_POINT($,#477);
#168=VERTEX_POINT($,#480);
#169=VERTEX_POINT($,#482);
#170=VERTEX_POINT($,#485);
#171=VERTEX_POINT($,#486);
#172=VERTEX_POINT($,#490);
#173=VERTEX_POINT($,#494);
#174=VERTEX_POINT($,#498);
#175=VERTEX_POINT($,#502);
#176=VERTEX_POINT($,#506);
#177=VERTEX_POINT($,#510);
#178=VERTEX_POINT($,#514);
#179=VERTEX_POINT($,#518);
#180=VERTEX_POINT($,#522);
#181=VERTEX_POINT($,#526);
#182=VERTEX_POINT($,#536);
#183=VERTEX_POINT($,#537);
#184=VERTEX_POINT($,#539);
#185=VERTEX_POINT($,#541);
#186=VERTEX_POINT($,#543);
#187=VERTEX_POINT($,#545);
#188=EDGE_CURVE($,#156,#156,#142,.T.);
#189=EDGE_CURVE($,#157,#157,#143,.T.);
#190=EDGE_CURVE($,#158,#158,#144,.T.);
#191=EDGE_CURVE($,#159,#159,#145,.T.);
#192=EDGE_CURVE($,#160,#160,#146,.T.);
#193=EDGE_CURVE($,#161,#161,#147,.T.);
#194=EDGE_CURVE($,#162,#162,#148,.T.);
#195=EDGE_CURVE($,#163,#163,#149,.T.);
#196=EDGE_CURVE($,#164,#164,#150,.T.);
#197=EDGE_CURVE($,#165,#165,#151,.T.);
#198=EDGE_CURVE($,#166,#166,#152,.T.);
#199=EDGE_CURVE($,#167,#167,#153,.T.);
#200=EDGE_CURVE($,#168,#168,#154,.T.);
#201=EDGE_CURVE($,#169,#169,#155,.T.);
#202=EDGE_CURVE($,#170,#171,#47,.T.);
#203=EDGE_CURVE($,#172,#170,#48,.T.);
#204=EDGE_CURVE($,#173,#172,#49,.T.);
#205=EDGE_CURVE($,#174,#173,#50,.T.);
#206=EDGE_CURVE($,#175,#174,#51,.T.);
#207=EDGE_CURVE($,#176,#175,#52,.T.);
#208=EDGE_CURVE($,#177,#176,#53,.T.);
#209=EDGE_CURVE($,#178,#177,#54,.T.);
#210=EDGE_CURVE($,#179,#178,#55,.T.);
#211=EDGE_CURVE($,#180,#179,#56,.T.);
#212=EDGE_CURVE($,#181,#180,#57,.T.);
#213=EDGE_CURVE($,#171,#181,#58,.T.);
#214=EDGE_CURVE($,#182,#183,#12,.T.);
#215=EDGE_CURVE($,#184,#182,#13,.T.);
#216=EDGE_CURVE($,#185,#184,#14,.T.);
#217=EDGE_CURVE($,#186,#185,#15,.T.);
#218=EDGE_CURVE($,#187,#186,#16,.T.);
#219=EDGE_CURVE($,#183,#187,#17,.T.);
#220=EDGE_CURVE($,#176,#184,#18,.T.);
#221=EDGE_CURVE($,#178,#182,#19,.T.);
#222=EDGE_CURVE($,#174,#185,#20,.T.);
#223=EDGE_CURVE($,#186,#172,#21,.T.);
#224=EDGE_CURVE($,#171,#187,#22,.T.);
#225=EDGE_CURVE($,#180,#183,#23,.T.);
#226=ORIENTED_EDGE($,*,*,#188,.T.);
#227=ORIENTED_EDGE($,*,*,#189,.F.);
#228=ORIENTED_EDGE($,*,*,#190,.T.);
#229=ORIENTED_EDGE($,*,*,#191,.F.);
#230=ORIENTED_EDGE($,*,*,#192,.T.);
#231=ORIENTED_EDGE($,*,*,#189,.T.);
#232=ORIENTED_EDGE($,*,*,#193,.T.);
#233=ORIENTED_EDGE($,*,*,#194,.F.);
#234=ORIENTED_EDGE($,*,*,#195,.F.);
#235=ORIENTED_EDGE($,*,*,#196,.T.);
#236=ORIENTED_EDGE($,*,*,#197,.F.);
#237=ORIENTED_EDGE($,*,*,#198,.T.);
#238=ORIENTED_EDGE($,*,*,#199,.F.);
#239=ORIENTED_EDGE($,*,*,#196,.F.);
#240=ORIENTED_EDGE($,*,*,#200,.T.);
#241=ORIENTED_EDGE($,*,*,#201,.F.);
#242=ORIENTED_EDGE($,*,*,#202,.F.);
#243=ORIENTED_EDGE($,*,*,#203,.F.);
#244=ORIENTED_EDGE($,*,*,#204,.F.);
#245=ORIENTED_EDGE($,*,*,#205,.F.);
#246=ORIENTED_EDGE($,*,*,#206,.F.);
#247=ORIENTED_EDGE($,*,*,#207,.F.);
#248=ORIENTED_EDGE($,*,*,#208,.F.);
#249=ORIENTED_EDGE($,*,*,#209,.F.);
#250=ORIENTED_EDGE($,*,*,#210,.F.);
#251=ORIENTED_EDGE($,*,*,#211,.F.);
#252=ORIENTED_EDGE($,*,*,#212,.F.);
#253=ORIENTED_EDGE($,*,*,#213,.F.);
#254=ORIENTED_EDGE($,*,*,#200,.F.);
#255=ORIENTED_EDGE($,*,*,#199,.T.);
#256=ORIENTED_EDGE($,*,*,#192,.F.);
#257=ORIENTED_EDGE($,*,*,#201,.T.);
#258=ORIENTED_EDGE($,*,*,#190,.F.);
#259=ORIENTED_EDGE($,*,*,#214,.F.);
#260=ORIENTED_EDGE($,*,*,#215,.F.);
#261=ORIENTED_EDGE($,*,*,#216,.F.);
#262=ORIENTED_EDGE($,*,*,#217,.F.);
#263=ORIENTED_EDGE($,*,*,#218,.F.);
#264=ORIENTED_EDGE($,*,*,#219,.F.);
#265=ORIENTED_EDGE($,*,*,#193,.F.);
#266=ORIENTED_EDGE($,*,*,#208,.T.);
#267=ORIENTED_EDGE($,*,*,#220,.T.);
#268=ORIENTED_EDGE($,*,*,#215,.T.);
#269=ORIENTED_EDGE($,*,*,#221,.F.);
#270=ORIENTED_EDGE($,*,*,#209,.T.);
#271=ORIENTED_EDGE($,*,*,#206,.T.);
#272=ORIENTED_EDGE($,*,*,#222,.T.);
#273=ORIENTED_EDGE($,*,*,#216,.T.);
#274=ORIENTED_EDGE($,*,*,#220,.F.);
#275=ORIENTED_EDGE($,*,*,#207,.T.);
#276=ORIENTED_EDGE($,*,*,#204,.T.);
#277=ORIENTED_EDGE($,*,*,#223,.F.);
#278=ORIENTED_EDGE($,*,*,#217,.T.);
#279=ORIENTED_EDGE($,*,*,#222,.F.);
#280=ORIENTED_EDGE($,*,*,#205,.T.);
#281=ORIENTED_EDGE($,*,*,#202,.T.);
#282=ORIENTED_EDGE($,*,*,#224,.T.);
#283=ORIENTED_EDGE($,*,*,#218,.T.);
#284=ORIENTED_EDGE($,*,*,#223,.T.);
#285=ORIENTED_EDGE($,*,*,#203,.T.);
#286=ORIENTED_EDGE($,*,*,#210,.T.);
#287=ORIENTED_EDGE($,*,*,#221,.T.);
#288=ORIENTED_EDGE($,*,*,#214,.T.);
#289=ORIENTED_EDGE($,*,*,#225,.F.);
#290=ORIENTED_EDGE($,*,*,#211,.T.);
#291=ORIENTED_EDGE($,*,*,#212,.T.);
#292=ORIENTED_EDGE($,*,*,#225,.T.);
#293=ORIENTED_EDGE($,*,*,#219,.T.);
#294=ORIENTED_EDGE($,*,*,#224,.F.);
#295=ORIENTED_EDGE($,*,*,#213,.T.);
#296=ORIENTED_EDGE($,*,*,#198,.F.);
#297=ORIENTED_EDGE($,*,*,#195,.T.);
#298=ORIENTED_EDGE($,*,*,#194,.T.);
#299=ORIENTED_EDGE($,*,*,#197,.T.);
#300=ORIENTED_EDGE($,*,*,#191,.T.);
#301=ORIENTED_EDGE($,*,*,#188,.F.);
#302=TOROIDAL_SURFACE($,#328,12.1081078441723,6.);
#303=TOROIDAL_SURFACE($,#339,12.1081078441722,5.99999999999996);
#304=ADVANCED_FACE($,(#85,#70),#302,.T.);
#305=ADVANCED_FACE($,(#86,#71),#62,.T.);
#306=ADVANCED_FACE($,(#87,#72),#59,.F.);
#307=ADVANCED_FACE($,(#88,#73),#63,.T.);
#308=ADVANCED_FACE($,(#89,#74),#303,.T.);
#309=ADVANCED_FACE($,(#90,#75),#64,.T.);
#310=ADVANCED_FACE($,(#91,#76),#60,.F.);
#311=ADVANCED_FACE($,(#92,#77),#65,.T.);
#312=ADVANCED_FACE($,(#93,#78),#61,.T.);
#313=ADVANCED_FACE($,(#94,#79),#66,.F.);
#314=ADVANCED_FACE($,(#95,#80),#36,.T.);
#315=ADVANCED_FACE($,(#96,#81),#37,.T.);
#316=ADVANCED_FACE($,(#97),#38,.T.);
#317=ADVANCED_FACE($,(#98),#39,.T.);
#318=ADVANCED_FACE($,(#99),#40,.T.);
#319=ADVANCED_FACE($,(#100),#41,.T.);
#320=ADVANCED_FACE($,(#101),#42,.T.);
#321=ADVANCED_FACE($,(#102),#43,.T.);
#322=ADVANCED_FACE($,(#103,#82),#44,.T.);
#323=ADVANCED_FACE($,(#104,#83),#45,.T.);
#324=ADVANCED_FACE($,(#105,#84),#46,.T.);
#325=CLOSED_SHELL($,(#304,#305,#306,#307,#308,#309,#310,#311,#312,#313,
#314,#315,#316,#317,#318,#319,#320,#321,#322,#323,#324));
#326=MANIFOLD_SOLID_BREP('175',#325);
#327=AXIS2_PLACEMENT_3D('placement',#447,#363,#364);
#328=AXIS2_PLACEMENT_3D($,#448,#365,#366);
#329=AXIS2_PLACEMENT_3D($,#450,#367,#368);
#330=AXIS2_PLACEMENT_3D($,#452,#369,#370);
#331=AXIS2_PLACEMENT_3D($,#453,#371,#372);
#332=AXIS2_PLACEMENT_3D($,#455,#373,#374);
#333=AXIS2_PLACEMENT_3D($,#457,#375,#376);
#334=AXIS2_PLACEMENT_3D($,#458,#377,#378);
#335=AXIS2_PLACEMENT_3D($,#460,#379,#380);
#336=AXIS2_PLACEMENT_3D($,#461,#381,#382);
#337=AXIS2_PLACEMENT_3D($,#463,#383,#384);
#338=AXIS2_PLACEMENT_3D($,#465,#385,#386);
#339=AXIS2_PLACEMENT_3D($,#466,#387,#388);
#340=AXIS2_PLACEMENT_3D($,#468,#389,#390);
#341=AXIS2_PLACEMENT_3D($,#470,#391,#392);
#342=AXIS2_PLACEMENT_3D($,#471,#393,#394);
#343=AXIS2_PLACEMENT_3D($,#473,#395,#396);
#344=AXIS2_PLACEMENT_3D($,#475,#397,#398);
#345=AXIS2_PLACEMENT_3D($,#476,#399,#400);
#346=AXIS2_PLACEMENT_3D($,#478,#401,#402);
#347=AXIS2_PLACEMENT_3D($,#479,#403,#404);
#348=AXIS2_PLACEMENT_3D($,#481,#405,#406);
#349=AXIS2_PLACEMENT_3D($,#483,#407,#408);
#350=AXIS2_PLACEMENT_3D($,#484,#409,#410);
#351=AXIS2_PLACEMENT_3D($,#533,#411,#412);
#352=AXIS2_PLACEMENT_3D($,#534,#413,#414);
#353=AXIS2_PLACEMENT_3D($,#535,#415,#416);
#354=AXIS2_PLACEMENT_3D($,#548,#423,#424);
#355=AXIS2_PLACEMENT_3D($,#551,#427,#428);
#356=AXIS2_PLACEMENT_3D($,#553,#430,#431);
#357=AXIS2_PLACEMENT_3D($,#555,#433,#434);
#358=AXIS2_PLACEMENT_3D($,#557,#436,#437);
#359=AXIS2_PLACEMENT_3D($,#559,#439,#440);
#360=AXIS2_PLACEMENT_3D($,#560,#441,#442);
#361=AXIS2_PLACEMENT_3D($,#561,#443,#444);
#362=AXIS2_PLACEMENT_3D($,#562,#445,#446);
#363=DIRECTION('axis',(0.,0.,1.));
#364=DIRECTION('refdir',(1.,0.,0.));
#365=DIRECTION('center_axis',(-1.,1.83691E-016,0.));
#366=DIRECTION('ref_axis',(0.,0.,-1.));
#367=DIRECTION('center_axis',(-1.,0.,0.));
#368=DIRECTION('ref_axis',(0.,1.,0.));
#369=DIRECTION('center_axis',(-1.,0.,0.));
#370=DIRECTION('ref_axis',(0.,1.,0.));
#371=DIRECTION('center_axis',(-1.,1.83691E-016,0.));
#372=DIRECTION('ref_axis',(1.83691E-016,1.,0.));
#373=DIRECTION('center_axis',(-1.,0.,0.));
#374=DIRECTION('ref_axis',(0.,1.,0.));
#375=DIRECTION('center_axis',(-1.,0.,0.));
#376=DIRECTION('ref_axis',(0.,1.,0.));
#377=DIRECTION('center_axis',(-1.,1.83691E-016,0.));
#378=DIRECTION('ref_axis',(1.83691E-016,1.,0.));
#379=DIRECTION('center_axis',(1.,0.,0.));
#380=DIRECTION('ref_axis',(0.,1.,0.));
#381=DIRECTION('center_axis',(1.,0.,0.));
#382=DIRECTION('ref_axis',(0.,1.,0.));
#383=DIRECTION('center_axis',(1.,0.,0.));
#384=DIRECTION('ref_axis',(0.,1.,0.));
#385=DIRECTION('center_axis',(1.,0.,0.));
#386=DIRECTION('ref_axis',(0.,1.,0.));
#387=DIRECTION('center_axis',(-1.,-1.83556175993985E-016,-1.32282054393342E-016));
#388=DIRECTION('ref_axis',(0.,0.,1.));
#389=DIRECTION('center_axis',(-1.,0.,0.));
#390=DIRECTION('ref_axis',(0.,1.,0.));
#391=DIRECTION('center_axis',(-1.,0.,0.));
#392=DIRECTION('ref_axis',(0.,1.,0.));
#393=DIRECTION('center_axis',(-1.,-2.92163953848726E-016,3.21971856561809E-017));
#394=DIRECTION('ref_axis',(5.3504724078321E-016,-1.,2.83751649159719E-016));
#395=DIRECTION('center_axis',(-1.,0.,0.));
#396=DIRECTION('ref_axis',(0.,1.,0.));
#397=DIRECTION('center_axis',(-1.,0.,0.));
#398=DIRECTION('ref_axis',(0.,1.,0.));
#399=DIRECTION('center_axis',(1.,1.50472662029057E-016,-1.12165127930469E-017));
#400=DIRECTION('ref_axis',(1.28976581907386E-016,-0.813826036051075,0.581108581114919));
#401=DIRECTION('center_axis',(1.,0.,0.));
#402=DIRECTION('ref_axis',(0.,1.,0.));
#403=DIRECTION('center_axis',(-1.,1.83691E-016,0.));
#404=DIRECTION('ref_axis',(1.83691E-016,1.,0.));
#405=DIRECTION('center_axis',(-1.,0.,0.));
#406=DIRECTION('ref_axis',(0.,1.,0.));
#407=DIRECTION('center_axis',(-1.,0.,0.));
#408=DIRECTION('ref_axis',(0.,1.,0.));
#409=DIRECTION('center_axis',(-1.,1.83691E-016,0.));
#410=DIRECTION('ref_axis',(1.83691E-016,1.,0.));
#411=DIRECTION('center_axis',(1.,0.,0.));
#412=DIRECTION('ref_axis',(0.,1.,0.));
#413=DIRECTION('center_axis',(-1.,0.,0.));
#414=DIRECTION('ref_axis',(0.,0.,-1.));
#415=DIRECTION('center_axis',(1.,0.,0.));
#416=DIRECTION('ref_axis',(0.,0.,1.));
#417=DIRECTION($,(0.,-1.,0.));
#418=DIRECTION($,(0.,-0.5,-0.866025403784438));
#419=DIRECTION($,(0.,0.5,-0.866025403784439));
#420=DIRECTION($,(0.,1.,0.));
#421=DIRECTION($,(0.,0.5,0.866025403784439));
#422=DIRECTION($,(0.,-0.5,0.866025403784439));
#423=DIRECTION('center_axis',(1.59081E-016,0.866025403784438,-0.5));
#424=DIRECTION('ref_axis',(0.,0.5,0.866025403784439));
#425=DIRECTION($,(1.,0.,0.));
#426=DIRECTION($,(1.,0.,0.));
#427=DIRECTION('center_axis',(1.59081E-016,0.866025403784439,0.5));
#428=DIRECTION('ref_axis',(0.,-0.5,0.866025403784439));
#429=DIRECTION($,(1.,0.,0.));
#430=DIRECTION('center_axis',(0.,0.,1.));
#431=DIRECTION('ref_axis',(0.,-1.,0.));
#432=DIRECTION($,(-1.,0.,0.));
#433=DIRECTION('center_axis',(-1.59081E-016,-0.866025403784439,0.5));
#434=DIRECTION('ref_axis',(0.,-0.5,-0.866025403784439));
#435=DIRECTION($,(1.,0.,0.));
#436=DIRECTION('center_axis',(0.,0.,-1.));
#437=DIRECTION('ref_axis',(0.,1.,0.));
#438=DIRECTION($,(1.,0.,0.));
#439=DIRECTION('center_axis',(-1.59081E-016,-0.866025403784439,-0.5));
#440=DIRECTION('ref_axis',(0.,0.5,-0.866025403784439));
#441=DIRECTION('center_axis',(1.,0.,0.));
#442=DIRECTION('ref_axis',(0.,0.,-1.));
#443=DIRECTION('center_axis',(1.,0.,0.));
#444=DIRECTION('ref_axis',(0.,0.,-1.));
#445=DIRECTION('center_axis',(-1.,0.,0.));
#446=DIRECTION('ref_axis',(0.,0.,-1.));
#447=CARTESIAN_POINT('',(0.,0.,0.));
#448=CARTESIAN_POINT('Origin',(2.39999999999986,0.,0.));
#449=CARTESIAN_POINT('',(0.,6.60901701022522,0.));
#450=CARTESIAN_POINT('Origin',(0.,0.,0.));
#451=CARTESIAN_POINT('',(2.39999999999921,-6.10810784417227,7.480028E-016));
#452=CARTESIAN_POINT('Origin',(2.39999999999921,0.,0.));
#453=CARTESIAN_POINT('Origin',(5.20000000000002,0.,0.));
#454=CARTESIAN_POINT('',(11.4,-8.29999999999997,1.016423E-015));
#455=CARTESIAN_POINT('Origin',(11.4,-1.396051E-015,0.));
#456=CARTESIAN_POINT('',(-1.776357E-015,-8.29999999999997,1.016423E-015));
#457=CARTESIAN_POINT('Origin',(0.,0.,0.));
#458=CARTESIAN_POINT('Origin',(9.58112825692496,0.,0.));
#459=CARTESIAN_POINT('',(11.4,-5.9510122598183,-7.287647E-016));
#460=CARTESIAN_POINT('Origin',(11.4,-3.341103E-016,0.));
#461=CARTESIAN_POINT('Origin',(20.6019334951158,0.,0.));
#462=CARTESIAN_POINT('',(19.6038669902317,-8.79999999999999,-1.077654E-015));
#463=CARTESIAN_POINT('Origin',(19.6038669902317,0.,0.));
#464=CARTESIAN_POINT('',(21.6,-8.79999999999999,-1.077654E-015));
#465=CARTESIAN_POINT('Origin',(21.6,0.,0.));
#466=CARTESIAN_POINT('Origin',(30.6000000000001,-2.48065457064683E-015,
-1.66533453693773E-015));
#467=CARTESIAN_POINT('',(33.,6.60901701022522,0.));
#468=CARTESIAN_POINT('Origin',(33.,0.,0.));
#469=CARTESIAN_POINT('',(30.6000000000008,-6.10810784417227,7.480028E-016));
#470=CARTESIAN_POINT('Origin',(30.6000000000008,0.,0.));
#471=CARTESIAN_POINT('Origin',(27.3,0.,-1.33871568802566E-015));
#472=CARTESIAN_POINT('',(21.6,-8.29999999999997,1.016423E-015));
#473=CARTESIAN_POINT('Origin',(21.6,-1.138884E-015,0.));
#474=CARTESIAN_POINT('',(33.,-8.29999999999997,1.016423E-015));
#475=CARTESIAN_POINT('Origin',(33.,0.,0.));
#476=CARTESIAN_POINT('Origin',(29.7000000000007,1.11022302462516E-015,5.55111512312578E-016));
#477=CARTESIAN_POINT('',(21.6,-5.95101225981831,7.287647E-016));
#478=CARTESIAN_POINT('Origin',(21.6,-3.341103E-016,0.));
#479=CARTESIAN_POINT('Origin',(12.3820508075688,0.,0.));
#480=CARTESIAN_POINT('',(13.3641016151377,-11.,1.347067E-015));
#481=CARTESIAN_POINT('Origin',(13.3641016151377,0.,0.));
#482=CARTESIAN_POINT('',(11.4,-11.,1.347067E-015));
#483=CARTESIAN_POINT('Origin',(11.4,0.,0.));
#484=CARTESIAN_POINT('Origin',(13.6320508075688,0.,0.));
#485=CARTESIAN_POINT('',(13.8999999999999,-7.79422863405995,4.5));
#486=CARTESIAN_POINT('',(13.5269330410535,-10.3923048454133,4.385381E-015));
#487=CARTESIAN_POINT('Ctrl Pts',(13.8999999999999,-7.79422863405995,4.5));
#488=CARTESIAN_POINT('Ctrl Pts',(13.9,-9.,2.4115427318801));
#489=CARTESIAN_POINT('Ctrl Pts',(13.5269330410535,-10.3923048454133,4.385381E-015));
#490=CARTESIAN_POINT('',(13.5269330410535,-5.19615242270663,9.00000000000001));
#491=CARTESIAN_POINT('Ctrl Pts',(13.5269330410535,-5.19615242270663,9.00000000000001));
#492=CARTESIAN_POINT('Ctrl Pts',(13.9,-6.58845726811993,6.5884572681199));
#493=CARTESIAN_POINT('Ctrl Pts',(13.8999999999999,-7.79422863405995,4.5));
#494=CARTESIAN_POINT('',(13.8999999999999,0.,9.));
#495=CARTESIAN_POINT('Ctrl Pts',(13.8999999999999,0.,9.));
#496=CARTESIAN_POINT('Ctrl Pts',(13.8999999999999,-2.41154273188019,9.));
#497=CARTESIAN_POINT('Ctrl Pts',(13.5269330410535,-5.19615242270663,9.00000000000001));
#498=CARTESIAN_POINT('',(13.5269330410535,5.19615242270663,9.));
#499=CARTESIAN_POINT('Ctrl Pts',(13.5269330410535,5.19615242270663,9.));
#500=CARTESIAN_POINT('Ctrl Pts',(13.9,2.41154273188016,9.));
#501=CARTESIAN_POINT('Ctrl Pts',(13.8999999999999,0.,9.));
#502=CARTESIAN_POINT('',(13.8999999999999,7.79422863405995,4.5));
#503=CARTESIAN_POINT('Ctrl Pts',(13.8999999999999,7.79422863405995,4.5));
#504=CARTESIAN_POINT('Ctrl Pts',(13.9,6.5884572681199,6.58845726811991));
#505=CARTESIAN_POINT('Ctrl Pts',(13.5269330410535,5.19615242270663,9.));
#506=CARTESIAN_POINT('',(13.5269330410535,10.3923048454133,-8.65974E-015));
#507=CARTESIAN_POINT('Ctrl Pts',(13.5269330410535,10.3923048454133,-8.65974E-015));
#508=CARTESIAN_POINT('Ctrl Pts',(13.8999999999999,9.,2.41154273188009));
#509=CARTESIAN_POINT('Ctrl Pts',(13.8999999999999,7.79422863405995,4.5));
#510=CARTESIAN_POINT('',(13.8999999999999,7.79422863405995,-4.50000000000001));
#511=CARTESIAN_POINT('Ctrl Pts',(13.8999999999999,7.79422863405995,-4.50000000000001));
#512=CARTESIAN_POINT('Ctrl Pts',(13.8999999999999,9.00000000000003,-2.4115427318801));
#513=CARTESIAN_POINT('Ctrl Pts',(13.5269330410535,10.3923048454133,-8.65974E-015));
#514=CARTESIAN_POINT('',(13.5269330410535,5.19615242270663,-9.));
#515=CARTESIAN_POINT('Ctrl Pts',(13.5269330410535,5.19615242270663,-9.00000000000001));
#516=CARTESIAN_POINT('Ctrl Pts',(13.8999999999999,6.58845726811995,-6.58845726811981));
#517=CARTESIAN_POINT('Ctrl Pts',(13.8999999999999,7.79422863405995,-4.50000000000001));
#518=CARTESIAN_POINT('',(13.8999999999999,0.,-9.));
#519=CARTESIAN_POINT('Ctrl Pts',(13.8999999999999,0.,-9.));
#520=CARTESIAN_POINT('Ctrl Pts',(13.8999999999999,2.41154273188019,-9.));
#521=CARTESIAN_POINT('Ctrl Pts',(13.5269330410535,5.19615242270663,-9.));
#522=CARTESIAN_POINT('',(13.5269330410535,-5.19615242270663,-9.));
#523=CARTESIAN_POINT('Ctrl Pts',(13.5269330410535,-5.19615242270663,-9.));
#524=CARTESIAN_POINT('Ctrl Pts',(13.9,-2.41154273188016,-8.99999999999999));
#525=CARTESIAN_POINT('Ctrl Pts',(13.8999999999999,0.,-9.));
#526=CARTESIAN_POINT('',(13.8999999999999,-7.79422863405995,-4.5));
#527=CARTESIAN_POINT('Ctrl Pts',(13.8999999999999,-7.79422863405995,-4.5));
#528=CARTESIAN_POINT('Ctrl Pts',(13.9,-6.58845726811987,-6.58845726811995));
#529=CARTESIAN_POINT('Ctrl Pts',(13.5269330410535,-5.19615242270663,-9.));
#530=CARTESIAN_POINT('Ctrl Pts',(13.5269330410535,-10.3923048454133,4.385381E-015));
#531=CARTESIAN_POINT('Ctrl Pts',(13.9,-9.00000000000003,-2.41154273188013));
#532=CARTESIAN_POINT('Ctrl Pts',(13.8999999999999,-7.79422863405995,-4.5));
#533=CARTESIAN_POINT('Origin',(16.5,0.,0.));
#534=CARTESIAN_POINT('Origin',(11.4,9.79999999999998,0.));
#535=CARTESIAN_POINT('Origin',(19.6038669902317,0.,1.554312E-015));
#536=CARTESIAN_POINT('',(19.6038669902317,5.19615242270663,-9.));
#537=CARTESIAN_POINT('',(19.6038669902317,-5.19615242270663,-8.99999999999999));
#538=CARTESIAN_POINT($,(19.6038669902317,5.19615242270663,-9.));
#539=CARTESIAN_POINT('',(19.6038669902317,10.3923048454133,-8.65974E-015));
#540=CARTESIAN_POINT($,(19.6038669902317,10.3923048454133,-8.65974E-015));
#541=CARTESIAN_POINT('',(19.6038669902317,5.19615242270663,9.));
#542=CARTESIAN_POINT($,(19.6038669902317,5.19615242270663,9.));
#543=CARTESIAN_POINT('',(19.6038669902317,-5.19615242270663,9.00000000000001));
#544=CARTESIAN_POINT($,(19.6038669902317,-5.19615242270663,9.00000000000001));
#545=CARTESIAN_POINT('',(19.6038669902317,-10.3923048454133,4.385381E-015));
#546=CARTESIAN_POINT($,(19.6038669902317,-10.3923048454133,4.385381E-015));
#547=CARTESIAN_POINT($,(19.6038669902317,-5.19615242270663,-8.99999999999999));
#548=CARTESIAN_POINT('Origin',(13.9038669902317,10.3923048454133,-8.65974E-015));
#549=CARTESIAN_POINT($,(13.5269330410535,10.3923048454133,-8.65974E-015));
#550=CARTESIAN_POINT($,(13.5269330410535,5.19615242270663,-9.));
#551=CARTESIAN_POINT('Origin',(13.9038669902317,5.19615242270663,9.));
#552=CARTESIAN_POINT($,(13.5269330410535,5.19615242270663,9.));
#553=CARTESIAN_POINT('Origin',(13.9038669902317,-5.19615242270663,9.00000000000001));
#554=CARTESIAN_POINT($,(19.6038669902317,-5.19615242270663,9.00000000000001));
#555=CARTESIAN_POINT('Origin',(13.9038669902317,-10.3923048454133,4.385381E-015));
#556=CARTESIAN_POINT($,(13.5269330410535,-10.3923048454133,4.385381E-015));
#557=CARTESIAN_POINT('Origin',(13.9038669902317,5.19615242270663,-9.));
#558=CARTESIAN_POINT($,(13.5269330410535,-5.19615242270663,-9.));
#559=CARTESIAN_POINT('Origin',(13.9038669902317,-5.19615242270663,-8.99999999999999));
#560=CARTESIAN_POINT('Origin',(33.,-8.29999999999998,0.));
#561=CARTESIAN_POINT('Origin',(21.6,4.14999999999999,0.));
#562=CARTESIAN_POINT('Origin',(0.,7.45450850511261,0.));
#563=UNCERTAINTY_MEASURE_WITH_UNIT(LENGTH_MEASURE(0.01),#565,
'DISTANCE_ACCURACY_VALUE',
'Maximum model space distance between geometric entities at asserted c
onnectivities');
#564=(
GEOMETRIC_REPRESENTATION_CONTEXT(3)
GLOBAL_UNCERTAINTY_ASSIGNED_CONTEXT((#563))
GLOBAL_UNIT_ASSIGNED_CONTEXT((#565,#568,#566))
REPRESENTATION_CONTEXT('','3D')
);
#565=(
LENGTH_UNIT()
NAMED_UNIT(*)
SI_UNIT(.MILLI.,.METRE.)
);
#566=(
NAMED_UNIT(*)
SI_UNIT($,.STERADIAN.)
SOLID_ANGLE_UNIT()
);
#567=DIMENSIONAL_EXPONENTS(0.,0.,0.,0.,0.,0.,0.);
#568=(
CONVERSION_BASED_UNIT('degree',#570)
NAMED_UNIT(#567)
PLANE_ANGLE_UNIT()
);
#569=(
NAMED_UNIT(*)
PLANE_ANGLE_UNIT()
SI_UNIT($,.RADIAN.)
);
#570=PLANE_ANGLE_MEASURE_WITH_UNIT(PLANE_ANGLE_MEASURE(0.01745329252),#569);
#571=SHAPE_DEFINITION_REPRESENTATION(#572,#573);
#572=PRODUCT_DEFINITION_SHAPE('',$,#575);
#573=SHAPE_REPRESENTATION('',(#327),#564);
#574=PRODUCT_DEFINITION_CONTEXT('3D Mechanical Parts',#578,'design');
#575=PRODUCT_DEFINITION('NFV038','NFV038',#576,#574);
#576=PRODUCT_DEFINITION_FORMATION('',$,#580);
#577=APPLICATION_PROTOCOL_DEFINITION('international standard',
'automotive_design',2009,#578);
#578=APPLICATION_CONTEXT(
'Core Data for Automotive Mechanical Design Process');
#579=PRODUCT_CONTEXT('3D Mechanical Parts',#578,'mechanical');
#580=PRODUCT('NFV038','NFV038',$,(#579));
#581=PRESENTATION_STYLE_ASSIGNMENT((#583));
#582=PRESENTATION_STYLE_ASSIGNMENT((#584));
#583=SURFACE_STYLE_USAGE(.BOTH.,#585);
#584=SURFACE_STYLE_USAGE(.BOTH.,#586);
#585=SURFACE_SIDE_STYLE($,(#587));
#586=SURFACE_SIDE_STYLE($,(#588));
#587=SURFACE_STYLE_FILL_AREA(#589);
#588=SURFACE_STYLE_FILL_AREA(#590);
#589=FILL_AREA_STYLE($,(#591));
#590=FILL_AREA_STYLE($,(#592));
#591=FILL_AREA_STYLE_COLOUR($,#593);
#592=FILL_AREA_STYLE_COLOUR($,#594);
#593=COLOUR_RGB('',0.509803921568627,0.509803921568627,0.588235294117647);
#594=COLOUR_RGB('',1.,0.,0.);
ENDSEC;
END-ISO-10303-21;
