ISO-10303-21;
HEADER;
/* Generated by software containing ST-Developer
 * from STEP Tools, Inc. (www.steptools.com) 
 */

FILE_DESCRIPTION(
/* description */ (''),
/* implementation_level */ '2;1');

FILE_NAME(
/* name */ 'C:\\Users\\Gabriele\\Desktop\\catalogo\\RB90\\RB90063C.stp',

/* time_stamp */ '2016-10-18T15:44:38+02:00',
/* author */ ('Gabriele'),
/* organization */ (''),
/* preprocessor_version */ 'ST-DEVELOPER v16.5',
/* originating_system */ 'Autodesk Inventor 2017',
/* authorisation */ '');

FILE_SCHEMA (('AUTOMOTIVE_DESIGN { 1 0 10303 214 3 1 1 }'));
ENDSEC;

DATA;
#10=MECHANICAL_DESIGN_GEOMETRIC_PRESENTATION_REPRESENTATION('',(#13),#283);
#11=SHAPE_REPRESENTATION_RELATIONSHIP('SRR','None',#292,#12);
#12=ADVANCED_BREP_SHAPE_REPRESENTATION('',(#14),#282);
#13=STYLED_ITEM('',(#301),#14);
#14=MANIFOLD_SOLID_BREP('Solido1',#158);
#15=CYLINDRICAL_SURFACE('',#169,31.5);
#16=CYLINDRICAL_SURFACE('',#171,11.5);
#17=CYLINDRICAL_SURFACE('',#175,12.5);
#18=CYLINDRICAL_SURFACE('',#179,18.8333333333333);
#19=CYLINDRICAL_SURFACE('',#183,25.1666666666667);
#20=CONICAL_SURFACE('',#165,18.3333333333333,37.2079219217816);
#21=CONICAL_SURFACE('',#181,22.,37.2079219217816);
#22=PLANE('',#163);
#23=PLANE('',#173);
#24=PLANE('',#177);
#25=PLANE('',#185);
#26=FACE_BOUND('',#53,.T.);
#27=FACE_BOUND('',#55,.T.);
#28=FACE_BOUND('',#57,.T.);
#29=FACE_BOUND('',#59,.T.);
#30=FACE_BOUND('',#61,.T.);
#31=FACE_BOUND('',#63,.T.);
#32=FACE_BOUND('',#65,.T.);
#33=FACE_BOUND('',#67,.T.);
#34=FACE_BOUND('',#69,.T.);
#35=FACE_BOUND('',#71,.T.);
#36=FACE_BOUND('',#73,.T.);
#37=FACE_BOUND('',#75,.T.);
#38=FACE_BOUND('',#77,.T.);
#39=FACE_OUTER_BOUND('',#52,.T.);
#40=FACE_OUTER_BOUND('',#54,.T.);
#41=FACE_OUTER_BOUND('',#56,.T.);
#42=FACE_OUTER_BOUND('',#58,.T.);
#43=FACE_OUTER_BOUND('',#60,.T.);
#44=FACE_OUTER_BOUND('',#62,.T.);
#45=FACE_OUTER_BOUND('',#64,.T.);
#46=FACE_OUTER_BOUND('',#66,.T.);
#47=FACE_OUTER_BOUND('',#68,.T.);
#48=FACE_OUTER_BOUND('',#70,.T.);
#49=FACE_OUTER_BOUND('',#72,.T.);
#50=FACE_OUTER_BOUND('',#74,.T.);
#51=FACE_OUTER_BOUND('',#76,.T.);
#52=EDGE_LOOP('',(#117));
#53=EDGE_LOOP('',(#118));
#54=EDGE_LOOP('',(#119));
#55=EDGE_LOOP('',(#120));
#56=EDGE_LOOP('',(#121));
#57=EDGE_LOOP('',(#122));
#58=EDGE_LOOP('',(#123));
#59=EDGE_LOOP('',(#124));
#60=EDGE_LOOP('',(#125));
#61=EDGE_LOOP('',(#126));
#62=EDGE_LOOP('',(#127));
#63=EDGE_LOOP('',(#128));
#64=EDGE_LOOP('',(#129));
#65=EDGE_LOOP('',(#130));
#66=EDGE_LOOP('',(#131));
#67=EDGE_LOOP('',(#132));
#68=EDGE_LOOP('',(#133));
#69=EDGE_LOOP('',(#134));
#70=EDGE_LOOP('',(#135));
#71=EDGE_LOOP('',(#136));
#72=EDGE_LOOP('',(#137));
#73=EDGE_LOOP('',(#138));
#74=EDGE_LOOP('',(#139));
#75=EDGE_LOOP('',(#140));
#76=EDGE_LOOP('',(#141));
#77=EDGE_LOOP('',(#142));
#78=CIRCLE('',#161,25.6629848135322);
#79=CIRCLE('',#162,24.8665384971824);
#80=CIRCLE('',#164,30.5);
#81=CIRCLE('',#166,11.5);
#82=CIRCLE('',#168,31.5);
#83=CIRCLE('',#170,31.5);
#84=CIRCLE('',#172,11.5);
#85=CIRCLE('',#174,12.5);
#86=CIRCLE('',#176,12.5);
#87=CIRCLE('',#178,18.8333333333333);
#88=CIRCLE('',#180,18.8333333333333);
#89=CIRCLE('',#182,25.1666666666667);
#90=CIRCLE('',#184,25.1666666666667);
#91=VERTEX_POINT('',#242);
#92=VERTEX_POINT('',#244);
#93=VERTEX_POINT('',#247);
#94=VERTEX_POINT('',#250);
#95=VERTEX_POINT('',#253);
#96=VERTEX_POINT('',#256);
#97=VERTEX_POINT('',#259);
#98=VERTEX_POINT('',#262);
#99=VERTEX_POINT('',#265);
#100=VERTEX_POINT('',#268);
#101=VERTEX_POINT('',#271);
#102=VERTEX_POINT('',#274);
#103=VERTEX_POINT('',#277);
#104=EDGE_CURVE('',#91,#91,#78,.T.);
#105=EDGE_CURVE('',#92,#92,#79,.T.);
#106=EDGE_CURVE('',#93,#93,#80,.T.);
#107=EDGE_CURVE('',#94,#94,#81,.T.);
#108=EDGE_CURVE('',#95,#95,#82,.T.);
#109=EDGE_CURVE('',#96,#96,#83,.T.);
#110=EDGE_CURVE('',#97,#97,#84,.T.);
#111=EDGE_CURVE('',#98,#98,#85,.T.);
#112=EDGE_CURVE('',#99,#99,#86,.T.);
#113=EDGE_CURVE('',#100,#100,#87,.T.);
#114=EDGE_CURVE('',#101,#101,#88,.T.);
#115=EDGE_CURVE('',#102,#102,#89,.T.);
#116=EDGE_CURVE('',#103,#103,#90,.T.);
#117=ORIENTED_EDGE('',*,*,#104,.T.);
#118=ORIENTED_EDGE('',*,*,#105,.T.);
#119=ORIENTED_EDGE('',*,*,#106,.F.);
#120=ORIENTED_EDGE('',*,*,#104,.F.);
#121=ORIENTED_EDGE('',*,*,#107,.F.);
#122=ORIENTED_EDGE('',*,*,#105,.F.);
#123=ORIENTED_EDGE('',*,*,#108,.T.);
#124=ORIENTED_EDGE('',*,*,#106,.T.);
#125=ORIENTED_EDGE('',*,*,#109,.T.);
#126=ORIENTED_EDGE('',*,*,#108,.F.);
#127=ORIENTED_EDGE('',*,*,#107,.T.);
#128=ORIENTED_EDGE('',*,*,#110,.F.);
#129=ORIENTED_EDGE('',*,*,#111,.F.);
#130=ORIENTED_EDGE('',*,*,#110,.T.);
#131=ORIENTED_EDGE('',*,*,#111,.T.);
#132=ORIENTED_EDGE('',*,*,#112,.F.);
#133=ORIENTED_EDGE('',*,*,#113,.F.);
#134=ORIENTED_EDGE('',*,*,#112,.T.);
#135=ORIENTED_EDGE('',*,*,#113,.T.);
#136=ORIENTED_EDGE('',*,*,#114,.F.);
#137=ORIENTED_EDGE('',*,*,#114,.T.);
#138=ORIENTED_EDGE('',*,*,#115,.F.);
#139=ORIENTED_EDGE('',*,*,#115,.T.);
#140=ORIENTED_EDGE('',*,*,#116,.F.);
#141=ORIENTED_EDGE('',*,*,#109,.F.);
#142=ORIENTED_EDGE('',*,*,#116,.T.);
#143=TOROIDAL_SURFACE('',#160,25.6629848135322,1.);
#144=TOROIDAL_SURFACE('',#167,30.5,1.);
#145=ADVANCED_FACE('',(#39,#26),#143,.T.);
#146=ADVANCED_FACE('',(#40,#27),#22,.T.);
#147=ADVANCED_FACE('',(#41,#28),#20,.F.);
#148=ADVANCED_FACE('',(#42,#29),#144,.T.);
#149=ADVANCED_FACE('',(#43,#30),#15,.T.);
#150=ADVANCED_FACE('',(#44,#31),#16,.F.);
#151=ADVANCED_FACE('',(#45,#32),#23,.T.);
#152=ADVANCED_FACE('',(#46,#33),#17,.F.);
#153=ADVANCED_FACE('',(#47,#34),#24,.T.);
#154=ADVANCED_FACE('',(#48,#35),#18,.T.);
#155=ADVANCED_FACE('',(#49,#36),#21,.T.);
#156=ADVANCED_FACE('',(#50,#37),#19,.F.);
#157=ADVANCED_FACE('',(#51,#38),#25,.T.);
#158=CLOSED_SHELL('',(#145,#146,#147,#148,#149,#150,#151,#152,#153,#154,
#155,#156,#157));
#159=AXIS2_PLACEMENT_3D('placement',#240,#186,#187);
#160=AXIS2_PLACEMENT_3D('',#241,#188,#189);
#161=AXIS2_PLACEMENT_3D('',#243,#190,#191);
#162=AXIS2_PLACEMENT_3D('',#245,#192,#193);
#163=AXIS2_PLACEMENT_3D('',#246,#194,#195);
#164=AXIS2_PLACEMENT_3D('',#248,#196,#197);
#165=AXIS2_PLACEMENT_3D('',#249,#198,#199);
#166=AXIS2_PLACEMENT_3D('',#251,#200,#201);
#167=AXIS2_PLACEMENT_3D('',#252,#202,#203);
#168=AXIS2_PLACEMENT_3D('',#254,#204,#205);
#169=AXIS2_PLACEMENT_3D('',#255,#206,#207);
#170=AXIS2_PLACEMENT_3D('',#257,#208,#209);
#171=AXIS2_PLACEMENT_3D('',#258,#210,#211);
#172=AXIS2_PLACEMENT_3D('',#260,#212,#213);
#173=AXIS2_PLACEMENT_3D('',#261,#214,#215);
#174=AXIS2_PLACEMENT_3D('',#263,#216,#217);
#175=AXIS2_PLACEMENT_3D('',#264,#218,#219);
#176=AXIS2_PLACEMENT_3D('',#266,#220,#221);
#177=AXIS2_PLACEMENT_3D('',#267,#222,#223);
#178=AXIS2_PLACEMENT_3D('',#269,#224,#225);
#179=AXIS2_PLACEMENT_3D('',#270,#226,#227);
#180=AXIS2_PLACEMENT_3D('',#272,#228,#229);
#181=AXIS2_PLACEMENT_3D('',#273,#230,#231);
#182=AXIS2_PLACEMENT_3D('',#275,#232,#233);
#183=AXIS2_PLACEMENT_3D('',#276,#234,#235);
#184=AXIS2_PLACEMENT_3D('',#278,#236,#237);
#185=AXIS2_PLACEMENT_3D('',#279,#238,#239);
#186=DIRECTION('axis',(0.,0.,1.));
#187=DIRECTION('refdir',(1.,0.,0.));
#188=DIRECTION('center_axis',(-1.,0.,0.));
#189=DIRECTION('ref_axis',(0.,0.,1.));
#190=DIRECTION('center_axis',(-1.,0.,0.));
#191=DIRECTION('ref_axis',(0.,1.,6.12323399573677E-17));
#192=DIRECTION('center_axis',(1.,0.,0.));
#193=DIRECTION('ref_axis',(0.,1.,-3.06161699786838E-17));
#194=DIRECTION('center_axis',(-1.,0.,0.));
#195=DIRECTION('ref_axis',(0.,0.,1.));
#196=DIRECTION('center_axis',(1.,0.,0.));
#197=DIRECTION('ref_axis',(0.,1.,6.12323399573677E-17));
#198=DIRECTION('center_axis',(-1.,0.,0.));
#199=DIRECTION('ref_axis',(0.,-1.,0.));
#200=DIRECTION('center_axis',(-1.,0.,0.));
#201=DIRECTION('ref_axis',(0.,0.,1.));
#202=DIRECTION('center_axis',(-1.,0.,0.));
#203=DIRECTION('ref_axis',(0.,0.,1.));
#204=DIRECTION('center_axis',(-1.,0.,0.));
#205=DIRECTION('ref_axis',(0.,1.,6.12323399573677E-17));
#206=DIRECTION('center_axis',(-1.,0.,0.));
#207=DIRECTION('ref_axis',(0.,-1.,0.));
#208=DIRECTION('center_axis',(-1.,0.,0.));
#209=DIRECTION('ref_axis',(0.,0.,1.));
#210=DIRECTION('center_axis',(-1.,0.,0.));
#211=DIRECTION('ref_axis',(0.,-1.,0.));
#212=DIRECTION('center_axis',(-1.,0.,0.));
#213=DIRECTION('ref_axis',(0.,0.,1.));
#214=DIRECTION('center_axis',(1.,0.,0.));
#215=DIRECTION('ref_axis',(0.,0.,-1.));
#216=DIRECTION('center_axis',(-1.,0.,0.));
#217=DIRECTION('ref_axis',(0.,0.,1.));
#218=DIRECTION('center_axis',(-1.,0.,0.));
#219=DIRECTION('ref_axis',(0.,-1.,0.));
#220=DIRECTION('center_axis',(-1.,0.,0.));
#221=DIRECTION('ref_axis',(0.,0.,1.));
#222=DIRECTION('center_axis',(1.,0.,0.));
#223=DIRECTION('ref_axis',(0.,0.,-1.));
#224=DIRECTION('center_axis',(-1.,0.,0.));
#225=DIRECTION('ref_axis',(0.,0.,1.));
#226=DIRECTION('center_axis',(-1.,0.,0.));
#227=DIRECTION('ref_axis',(0.,-1.,0.));
#228=DIRECTION('center_axis',(-1.,0.,0.));
#229=DIRECTION('ref_axis',(0.,0.,1.));
#230=DIRECTION('center_axis',(-1.,0.,0.));
#231=DIRECTION('ref_axis',(0.,-1.,0.));
#232=DIRECTION('center_axis',(-1.,0.,0.));
#233=DIRECTION('ref_axis',(0.,0.,1.));
#234=DIRECTION('center_axis',(-1.,0.,0.));
#235=DIRECTION('ref_axis',(0.,-1.,0.));
#236=DIRECTION('center_axis',(-1.,0.,0.));
#237=DIRECTION('ref_axis',(0.,0.,1.));
#238=DIRECTION('center_axis',(1.,0.,0.));
#239=DIRECTION('ref_axis',(0.,0.,-1.));
#240=CARTESIAN_POINT('',(0.,0.,0.));
#241=CARTESIAN_POINT('Origin',(1.00000000000003,0.,0.));
#242=CARTESIAN_POINT('',(3.05311331771918E-14,-25.6629848135322,1.57140461042296E-15));
#243=CARTESIAN_POINT('Origin',(3.05311331771918E-14,0.,0.));
#244=CARTESIAN_POINT('',(0.395290759808565,-24.8665384971824,-4.56790901646733E-15));
#245=CARTESIAN_POINT('Origin',(0.395290759808565,0.,-2.28395450823367E-15));
#246=CARTESIAN_POINT('Origin',(3.05577628844237E-14,-25.1666666666667,0.));
#247=CARTESIAN_POINT('',(3.05311331771918E-14,-30.5,-5.60275910609914E-15));
#248=CARTESIAN_POINT('Origin',(3.05311331771918E-14,0.,0.));
#249=CARTESIAN_POINT('Origin',(9.00000000000003,0.,0.));
#250=CARTESIAN_POINT('',(18.,-11.5,0.));
#251=CARTESIAN_POINT('Origin',(18.,0.,0.));
#252=CARTESIAN_POINT('Origin',(1.00000000000003,0.,0.));
#253=CARTESIAN_POINT('',(1.00000000000003,-31.5,1.92881870865708E-15));
#254=CARTESIAN_POINT('Origin',(1.00000000000003,0.,0.));
#255=CARTESIAN_POINT('Origin',(19.,0.,0.));
#256=CARTESIAN_POINT('',(38.,-31.5,0.));
#257=CARTESIAN_POINT('Origin',(38.,0.,0.));
#258=CARTESIAN_POINT('Origin',(18.5,0.,0.));
#259=CARTESIAN_POINT('',(19.,-11.5,0.));
#260=CARTESIAN_POINT('Origin',(19.,0.,0.));
#261=CARTESIAN_POINT('Origin',(19.,-12.5,0.));
#262=CARTESIAN_POINT('',(19.,-12.5,0.));
#263=CARTESIAN_POINT('Origin',(19.,0.,0.));
#264=CARTESIAN_POINT('Origin',(28.5,0.,0.));
#265=CARTESIAN_POINT('',(38.,-12.5,0.));
#266=CARTESIAN_POINT('Origin',(38.,0.,0.));
#267=CARTESIAN_POINT('Origin',(38.,-18.8333333333333,0.));
#268=CARTESIAN_POINT('',(38.,-18.8333333333333,0.));
#269=CARTESIAN_POINT('Origin',(38.,0.,0.));
#270=CARTESIAN_POINT('Origin',(28.,0.,0.));
#271=CARTESIAN_POINT('',(18.,-18.8333333333333,0.));
#272=CARTESIAN_POINT('Origin',(18.,0.,0.));
#273=CARTESIAN_POINT('Origin',(13.829268292683,0.,0.));
#274=CARTESIAN_POINT('',(9.65853658536588,-25.1666666666667,0.));
#275=CARTESIAN_POINT('Origin',(9.65853658536588,0.,0.));
#276=CARTESIAN_POINT('Origin',(23.829268292683,0.,0.));
#277=CARTESIAN_POINT('',(38.,-25.1666666666667,0.));
#278=CARTESIAN_POINT('Origin',(38.,0.,0.));
#279=CARTESIAN_POINT('Origin',(38.,-31.5,0.));
#280=UNCERTAINTY_MEASURE_WITH_UNIT(LENGTH_MEASURE(0.01),#284,
'DISTANCE_ACCURACY_VALUE',
'Maximum model space distance between geometric entities at asserted c
onnectivities');
#281=UNCERTAINTY_MEASURE_WITH_UNIT(LENGTH_MEASURE(1.E-6),#284,
'DISTANCE_ACCURACY_VALUE',
'Maximum model space distance between geometric entities at asserted c
onnectivities');
#282=(
GEOMETRIC_REPRESENTATION_CONTEXT(3)
GLOBAL_UNCERTAINTY_ASSIGNED_CONTEXT((#280))
GLOBAL_UNIT_ASSIGNED_CONTEXT((#284,#287,#285))
REPRESENTATION_CONTEXT('','3D')
);
#283=(
GEOMETRIC_REPRESENTATION_CONTEXT(3)
GLOBAL_UNCERTAINTY_ASSIGNED_CONTEXT((#281))
GLOBAL_UNIT_ASSIGNED_CONTEXT((#284,#287,#285))
REPRESENTATION_CONTEXT('','3D')
);
#284=(
LENGTH_UNIT()
NAMED_UNIT(*)
SI_UNIT(.MILLI.,.METRE.)
);
#285=(
NAMED_UNIT(*)
SI_UNIT($,.STERADIAN.)
SOLID_ANGLE_UNIT()
);
#286=DIMENSIONAL_EXPONENTS(0.,0.,0.,0.,0.,0.,0.);
#287=(
CONVERSION_BASED_UNIT('degree',#289)
NAMED_UNIT(#286)
PLANE_ANGLE_UNIT()
);
#288=(
NAMED_UNIT(*)
PLANE_ANGLE_UNIT()
SI_UNIT($,.RADIAN.)
);
#289=PLANE_ANGLE_MEASURE_WITH_UNIT(PLANE_ANGLE_MEASURE(0.01745329252),#288);
#290=SHAPE_DEFINITION_REPRESENTATION(#291,#292);
#291=PRODUCT_DEFINITION_SHAPE('',$,#294);
#292=SHAPE_REPRESENTATION('',(#159),#282);
#293=PRODUCT_DEFINITION_CONTEXT('part definition',#298,'design');
#294=PRODUCT_DEFINITION('RB90063C','RB90_disegno_B',#295,#293);
#295=PRODUCT_DEFINITION_FORMATION('',$,#300);
#296=PRODUCT_RELATED_PRODUCT_CATEGORY('RB90_disegno_B','RB90_disegno_B',
(#300));
#297=APPLICATION_PROTOCOL_DEFINITION('international standard',
'automotive_design',2009,#298);
#298=APPLICATION_CONTEXT(
'Core Data for Automotive Mechanical Design Process');
#299=PRODUCT_CONTEXT('part definition',#298,'mechanical');
#300=PRODUCT('RB90063C','RB90_disegno_B',$,(#299));
#301=PRESENTATION_STYLE_ASSIGNMENT((#302));
#302=SURFACE_STYLE_USAGE(.BOTH.,#303);
#303=SURFACE_SIDE_STYLE('',(#304));
#304=SURFACE_STYLE_FILL_AREA(#305);
#305=FILL_AREA_STYLE('',(#306));
#306=FILL_AREA_STYLE_COLOUR('',#307);
#307=COLOUR_RGB('',0.749019607843137,0.749019607843137,0.749019607843137);
ENDSEC;
END-ISO-10303-21;
