ISO-10303-21;
HEADER;
/* Generated by software containing ST-Developer
 * from STEP Tools, Inc. (www.steptools.com) 
 */

FILE_DESCRIPTION(
/* description */ (''),
/* implementation_level */ '2;1');

FILE_NAME(
/* name */ 'C:\\Users\\mdebiase\\Desktop\\baricentro\\RIV200160.ipt.st
p',
/* time_stamp */ '2014-05-27T15:25:13+02:00',
/* author */ ('bfaro'),
/* organization */ (''),
/* preprocessor_version */ 'ST-DEVELOPER v15.2',
/* originating_system */ 'Autodesk Inventor 2014',
/* authorisation */ '');

FILE_SCHEMA (('AUTOMOTIVE_DESIGN { 1 0 10303 214 3 1 1 }'));
ENDSEC;

DATA;
#10=SHAPE_REPRESENTATION_RELATIONSHIP('SRR','None',#209,#11);
#11=ADVANCED_BREP_SHAPE_REPRESENTATION($,(#113),#200);
#12=STYLED_ITEM($,(#217),#113);
#13=PLANE($,#122);
#14=PLANE($,#126);
#15=PLANE($,#132);
#16=TOROIDAL_SURFACE($,#118,218.015083781693,125.);
#17=TOROIDAL_SURFACE($,#128,217.790660745043,140.);
#18=FACE_BOUND($,#37,.T.);
#19=FACE_BOUND($,#39,.T.);
#20=FACE_BOUND($,#41,.T.);
#21=FACE_BOUND($,#42,.T.);
#22=FACE_BOUND($,#43,.T.);
#23=FACE_BOUND($,#45,.T.);
#24=FACE_BOUND($,#46,.T.);
#25=FACE_BOUND($,#47,.T.);
#26=FACE_BOUND($,#49,.T.);
#27=FACE_BOUND($,#51,.T.);
#28=FACE_BOUND($,#53,.T.);
#29=FACE_OUTER_BOUND($,#36,.T.);
#30=FACE_OUTER_BOUND($,#38,.T.);
#31=FACE_OUTER_BOUND($,#40,.T.);
#32=FACE_OUTER_BOUND($,#44,.T.);
#33=FACE_OUTER_BOUND($,#48,.T.);
#34=FACE_OUTER_BOUND($,#50,.T.);
#35=FACE_OUTER_BOUND($,#52,.T.);
#36=EDGE_LOOP($,(#81));
#37=EDGE_LOOP($,(#82));
#38=EDGE_LOOP($,(#83));
#39=EDGE_LOOP($,(#84));
#40=EDGE_LOOP($,(#85));
#41=EDGE_LOOP($,(#86));
#42=EDGE_LOOP($,(#87));
#43=EDGE_LOOP($,(#88));
#44=EDGE_LOOP($,(#89));
#45=EDGE_LOOP($,(#90));
#46=EDGE_LOOP($,(#91));
#47=EDGE_LOOP($,(#92));
#48=EDGE_LOOP($,(#93));
#49=EDGE_LOOP($,(#94));
#50=EDGE_LOOP($,(#95));
#51=EDGE_LOOP($,(#96));
#52=EDGE_LOOP($,(#97));
#53=EDGE_LOOP($,(#98));
#54=CIRCLE($,#116,100.);
#55=CIRCLE($,#117,100.);
#56=CIRCLE($,#119,93.015083781693);
#57=CIRCLE($,#121,93.015083781693);
#58=CIRCLE($,#123,80.);
#59=CIRCLE($,#125,80.);
#60=CIRCLE($,#127,78.);
#61=CIRCLE($,#129,85.);
#62=CIRCLE($,#131,85.);
#63=VERTEX_POINT($,#173);
#64=VERTEX_POINT($,#175);
#65=VERTEX_POINT($,#178);
#66=VERTEX_POINT($,#181);
#67=VERTEX_POINT($,#184);
#68=VERTEX_POINT($,#187);
#69=VERTEX_POINT($,#190);
#70=VERTEX_POINT($,#193);
#71=VERTEX_POINT($,#196);
#72=EDGE_CURVE($,#63,#63,#54,.T.);
#73=EDGE_CURVE($,#64,#64,#55,.T.);
#74=EDGE_CURVE($,#65,#65,#56,.T.);
#75=EDGE_CURVE($,#66,#66,#57,.T.);
#76=EDGE_CURVE($,#67,#67,#58,.T.);
#77=EDGE_CURVE($,#68,#68,#59,.T.);
#78=EDGE_CURVE($,#69,#69,#60,.T.);
#79=EDGE_CURVE($,#70,#70,#61,.T.);
#80=EDGE_CURVE($,#71,#71,#62,.T.);
#81=ORIENTED_EDGE($,*,*,#72,.F.);
#82=ORIENTED_EDGE($,*,*,#73,.T.);
#83=ORIENTED_EDGE($,*,*,#74,.F.);
#84=ORIENTED_EDGE($,*,*,#72,.T.);
#85=ORIENTED_EDGE($,*,*,#75,.F.);
#86=ORIENTED_EDGE($,*,*,#74,.T.);
#87=ORIENTED_EDGE($,*,*,#76,.F.);
#88=ORIENTED_EDGE($,*,*,#75,.T.);
#89=ORIENTED_EDGE($,*,*,#77,.F.);
#90=ORIENTED_EDGE($,*,*,#76,.T.);
#91=ORIENTED_EDGE($,*,*,#78,.F.);
#92=ORIENTED_EDGE($,*,*,#77,.T.);
#93=ORIENTED_EDGE($,*,*,#79,.F.);
#94=ORIENTED_EDGE($,*,*,#78,.T.);
#95=ORIENTED_EDGE($,*,*,#80,.F.);
#96=ORIENTED_EDGE($,*,*,#79,.T.);
#97=ORIENTED_EDGE($,*,*,#73,.F.);
#98=ORIENTED_EDGE($,*,*,#80,.T.);
#99=CYLINDRICAL_SURFACE($,#115,100.);
#100=CYLINDRICAL_SURFACE($,#120,93.015083781693);
#101=CYLINDRICAL_SURFACE($,#124,80.);
#102=CYLINDRICAL_SURFACE($,#130,85.);
#103=ADVANCED_FACE($,(#29,#18),#99,.T.);
#104=ADVANCED_FACE($,(#30,#19),#16,.F.);
#105=ADVANCED_FACE($,(#31,#20),#100,.T.);
#106=ADVANCED_FACE($,(#21,#22),#13,.T.);
#107=ADVANCED_FACE($,(#32,#23),#101,.F.);
#108=ADVANCED_FACE($,(#24,#25),#14,.T.);
#109=ADVANCED_FACE($,(#33,#26),#17,.T.);
#110=ADVANCED_FACE($,(#34,#27),#102,.F.);
#111=ADVANCED_FACE($,(#35,#28),#15,.T.);
#112=CLOSED_SHELL($,(#103,#104,#105,#106,#107,#108,#109,#110,#111));
#113=MANIFOLD_SOLID_BREP('Solido1',#112);
#114=AXIS2_PLACEMENT_3D('placement',#171,#133,#134);
#115=AXIS2_PLACEMENT_3D($,#172,#135,#136);
#116=AXIS2_PLACEMENT_3D($,#174,#137,#138);
#117=AXIS2_PLACEMENT_3D($,#176,#139,#140);
#118=AXIS2_PLACEMENT_3D($,#177,#141,#142);
#119=AXIS2_PLACEMENT_3D($,#179,#143,#144);
#120=AXIS2_PLACEMENT_3D($,#180,#145,#146);
#121=AXIS2_PLACEMENT_3D($,#182,#147,#148);
#122=AXIS2_PLACEMENT_3D($,#183,#149,#150);
#123=AXIS2_PLACEMENT_3D($,#185,#151,#152);
#124=AXIS2_PLACEMENT_3D($,#186,#153,#154);
#125=AXIS2_PLACEMENT_3D($,#188,#155,#156);
#126=AXIS2_PLACEMENT_3D($,#189,#157,#158);
#127=AXIS2_PLACEMENT_3D($,#191,#159,#160);
#128=AXIS2_PLACEMENT_3D($,#192,#161,#162);
#129=AXIS2_PLACEMENT_3D($,#194,#163,#164);
#130=AXIS2_PLACEMENT_3D($,#195,#165,#166);
#131=AXIS2_PLACEMENT_3D($,#197,#167,#168);
#132=AXIS2_PLACEMENT_3D($,#198,#169,#170);
#133=DIRECTION('axis',(0.,0.,1.));
#134=DIRECTION('refdir',(1.,0.,0.));
#135=DIRECTION('center_axis',(0.,0.,1.));
#136=DIRECTION('ref_axis',(0.,-1.,0.));
#137=DIRECTION('center_axis',(0.,0.,1.));
#138=DIRECTION('ref_axis',(0.,-1.,0.));
#139=DIRECTION('center_axis',(0.,0.,1.));
#140=DIRECTION('ref_axis',(0.,-1.,0.));
#141=DIRECTION('center_axis',(0.,0.,1.));
#142=DIRECTION('ref_axis',(1.,0.,0.));
#143=DIRECTION('center_axis',(0.,0.,1.));
#144=DIRECTION('ref_axis',(0.,-1.,0.));
#145=DIRECTION('center_axis',(0.,0.,1.));
#146=DIRECTION('ref_axis',(0.,-1.,0.));
#147=DIRECTION('center_axis',(0.,0.,1.));
#148=DIRECTION('ref_axis',(0.,-1.,0.));
#149=DIRECTION('center_axis',(0.,0.,1.));
#150=DIRECTION('ref_axis',(1.,0.,0.));
#151=DIRECTION('center_axis',(0.,0.,1.));
#152=DIRECTION('ref_axis',(0.,-1.,0.));
#153=DIRECTION('center_axis',(0.,0.,1.));
#154=DIRECTION('ref_axis',(0.,-1.,0.));
#155=DIRECTION('center_axis',(0.,0.,1.));
#156=DIRECTION('ref_axis',(0.,-1.,0.));
#157=DIRECTION('center_axis',(0.,0.,1.));
#158=DIRECTION('ref_axis',(1.,0.,0.));
#159=DIRECTION('center_axis',(0.,0.,1.));
#160=DIRECTION('ref_axis',(0.,-1.,0.));
#161=DIRECTION('center_axis',(0.,0.,1.));
#162=DIRECTION('ref_axis',(1.,0.,0.));
#163=DIRECTION('center_axis',(0.,0.,1.));
#164=DIRECTION('ref_axis',(0.,-1.,0.));
#165=DIRECTION('center_axis',(0.,0.,1.));
#166=DIRECTION('ref_axis',(0.,-1.,0.));
#167=DIRECTION('center_axis',(0.,0.,1.));
#168=DIRECTION('ref_axis',(0.,-1.,0.));
#169=DIRECTION('center_axis',(0.,0.,-1.));
#170=DIRECTION('ref_axis',(-1.,0.,0.));
#171=CARTESIAN_POINT('',(0.,0.,0.));
#172=CARTESIAN_POINT('Origin',(0.,0.,-62.169955));
#173=CARTESIAN_POINT('',(0.,-100.,-9.16995499999999));
#174=CARTESIAN_POINT('Origin',(0.,0.,-9.16995499999999));
#175=CARTESIAN_POINT('',(0.,-100.,-115.169955));
#176=CARTESIAN_POINT('Origin',(0.,0.,-115.169955));
#177=CARTESIAN_POINT('Origin',(0.,0.,32.030045));
#178=CARTESIAN_POINT('',(0.,-93.015083781693,32.030045));
#179=CARTESIAN_POINT('Origin',(0.,0.,32.030045));
#180=CARTESIAN_POINT('Origin',(0.,0.,79.430045));
#181=CARTESIAN_POINT('',(0.,-93.015083781693,126.830045));
#182=CARTESIAN_POINT('Origin',(0.,0.,126.830045));
#183=CARTESIAN_POINT('Origin',(0.,-86.5075418908465,126.830045));
#184=CARTESIAN_POINT('',(0.,-80.,126.830045));
#185=CARTESIAN_POINT('Origin',(0.,0.,126.830045));
#186=CARTESIAN_POINT('Origin',(0.,0.,83.830045));
#187=CARTESIAN_POINT('',(0.,-80.,40.830045));
#188=CARTESIAN_POINT('Origin',(0.,0.,40.830045));
#189=CARTESIAN_POINT('Origin',(0.,-79.,40.830045));
#190=CARTESIAN_POINT('',(0.,-78.,40.830045));
#191=CARTESIAN_POINT('Origin',(0.,0.,40.830045));
#192=CARTESIAN_POINT('Origin',(0.,0.,33.1768647156788));
#193=CARTESIAN_POINT('',(0.,-85.,-11.169955));
#194=CARTESIAN_POINT('Origin',(0.,0.,-11.169955));
#195=CARTESIAN_POINT('Origin',(0.,0.,-63.169955));
#196=CARTESIAN_POINT('',(0.,-85.,-115.169955));
#197=CARTESIAN_POINT('Origin',(0.,0.,-115.169955));
#198=CARTESIAN_POINT('Origin',(0.,-92.5,-115.169955));
#199=UNCERTAINTY_MEASURE_WITH_UNIT(LENGTH_MEASURE(0.01),#201,
'DISTANCE_ACCURACY_VALUE',
'Maximum model space distance between geometric entities at asserted c
onnectivities');
#200=(
GEOMETRIC_REPRESENTATION_CONTEXT(3)
GLOBAL_UNCERTAINTY_ASSIGNED_CONTEXT((#199))
GLOBAL_UNIT_ASSIGNED_CONTEXT((#201,#204,#202))
REPRESENTATION_CONTEXT('','3D')
);
#201=(
LENGTH_UNIT()
NAMED_UNIT(*)
SI_UNIT(.MILLI.,.METRE.)
);
#202=(
NAMED_UNIT(*)
SI_UNIT($,.STERADIAN.)
SOLID_ANGLE_UNIT()
);
#203=DIMENSIONAL_EXPONENTS(0.,0.,0.,0.,0.,0.,0.);
#204=(
CONVERSION_BASED_UNIT('degree',#206)
NAMED_UNIT(#203)
PLANE_ANGLE_UNIT()
);
#205=(
NAMED_UNIT(*)
PLANE_ANGLE_UNIT()
SI_UNIT($,.RADIAN.)
);
#206=PLANE_ANGLE_MEASURE_WITH_UNIT(PLANE_ANGLE_MEASURE(0.01745329252),#205);
#207=SHAPE_DEFINITION_REPRESENTATION(#208,#209);
#208=PRODUCT_DEFINITION_SHAPE('',$,#211);
#209=SHAPE_REPRESENTATION('',(#114),#200);
#210=PRODUCT_DEFINITION_CONTEXT('3D Mechanical Parts',#214,'design');
#211=PRODUCT_DEFINITION('RIV200160','RIV200160',#212,#210);
#212=PRODUCT_DEFINITION_FORMATION('',$,#216);
#213=APPLICATION_PROTOCOL_DEFINITION('international standard',
'automotive_design',2009,#214);
#214=APPLICATION_CONTEXT(
'Core Data for Automotive Mechanical Design Process');
#215=PRODUCT_CONTEXT('3D Mechanical Parts',#214,'mechanical');
#216=PRODUCT('RIV200160','RIV200160',$,(#215));
#217=PRESENTATION_STYLE_ASSIGNMENT((#218));
#218=SURFACE_STYLE_USAGE(.BOTH.,#219);
#219=SURFACE_SIDE_STYLE($,(#220));
#220=SURFACE_STYLE_FILL_AREA(#221);
#221=FILL_AREA_STYLE($,(#222));
#222=FILL_AREA_STYLE_COLOUR($,#223);
#223=COLOUR_RGB('',0.509803921568627,0.509803921568627,0.588235294117647);
ENDSEC;
END-ISO-10303-21;
