ISO-10303-21;
HEADER;
FILE_DESCRIPTION( ( '' ), '1' );
FILE_NAME( '//se01002/users/anro/AGRU_70706009011_PE_100_RC_schwarz_Rohr_6m_90X8_2__SDR11__ISO_S-5_05.stp', '2017-12-12T07:55:46', ( '' ), ( '' ), ' ', ' ', ' ' );
FILE_SCHEMA( ( 'automotive_design' ) );
ENDSEC;
DATA;
#1 = MECHANICAL_DESIGN_GEOMETRIC_PRESENTATION_REPRESENTATION( ' ', ( #10, #11, #12, #13, #14, #15, #16, #17, #18, #19, #20, #21, #22, #23, #24, #25, #26, #27, #28, #29, #30, #31, #32, #33, #34, #35, #36 ), #6 );
#2 = PRODUCT_DEFINITION_CONTEXT( '', #37, 'design' );
#3 = APPLICATION_PROTOCOL_DEFINITION( 'INTERNATIONAL STANDARD', 'automotive_design', 1994, #37 );
#4 = PRODUCT_CATEGORY_RELATIONSHIP( 'NONE', 'NONE', #38, #39 );
#5 = SHAPE_DEFINITION_REPRESENTATION( #40, #41 );
#6 =  ( GEOMETRIC_REPRESENTATION_CONTEXT( 3 )GLOBAL_UNCERTAINTY_ASSIGNED_CONTEXT( ( #44 ) )GLOBAL_UNIT_ASSIGNED_CONTEXT( ( #46, #47, #48 ) )REPRESENTATION_CONTEXT( 'NONE', 'WORKSPACE' ) );
#10 = STYLED_ITEM( '', ( #50 ), #51 );
#11 = STYLED_ITEM( '', ( #52 ), #53 );
#12 = STYLED_ITEM( '', ( #54 ), #55 );
#13 = STYLED_ITEM( '', ( #56 ), #57 );
#14 = STYLED_ITEM( '', ( #58 ), #59 );
#15 = STYLED_ITEM( '', ( #60 ), #61 );
#16 = STYLED_ITEM( '', ( #62 ), #63 );
#17 = STYLED_ITEM( '', ( #64 ), #65 );
#18 = STYLED_ITEM( '', ( #66 ), #67 );
#19 = STYLED_ITEM( '', ( #68 ), #69 );
#20 = STYLED_ITEM( '', ( #70 ), #71 );
#21 = STYLED_ITEM( '', ( #72 ), #73 );
#22 = STYLED_ITEM( '', ( #74 ), #75 );
#23 = STYLED_ITEM( '', ( #76 ), #77 );
#24 = STYLED_ITEM( '', ( #78 ), #79 );
#25 = STYLED_ITEM( '', ( #80 ), #81 );
#26 = STYLED_ITEM( '', ( #82 ), #83 );
#27 = STYLED_ITEM( '', ( #84 ), #85 );
#28 = STYLED_ITEM( '', ( #86 ), #87 );
#29 = STYLED_ITEM( '', ( #88 ), #89 );
#30 = STYLED_ITEM( '', ( #90 ), #91 );
#31 = STYLED_ITEM( '', ( #92 ), #93 );
#32 = STYLED_ITEM( '', ( #94 ), #95 );
#33 = STYLED_ITEM( '', ( #96 ), #97 );
#34 = STYLED_ITEM( '', ( #98 ), #99 );
#35 = STYLED_ITEM( '', ( #100 ), #101 );
#36 = STYLED_ITEM( '', ( #102 ), #103 );
#37 = APPLICATION_CONTEXT( ' ' );
#38 = PRODUCT_CATEGORY( 'part', 'NONE' );
#39 = PRODUCT_RELATED_PRODUCT_CATEGORY( 'detail', ' ', ( #104 ) );
#40 = PRODUCT_DEFINITION_SHAPE( 'NONE', 'NONE', #105 );
#41 = ADVANCED_BREP_SHAPE_REPRESENTATION( '1', ( #93, #106 ), #6 );
#44 = UNCERTAINTY_MEASURE_WITH_UNIT( LENGTH_MEASURE( 1.00000000000000E-006 ), #46, '', '' );
#46 =  ( CONVERSION_BASED_UNIT( 'MILLIMETRE', #109 )LENGTH_UNIT(  )NAMED_UNIT( #112 ) );
#47 =  ( NAMED_UNIT( #114 )PLANE_ANGLE_UNIT(  )SI_UNIT( $, .RADIAN. ) );
#48 =  ( NAMED_UNIT( #114 )SOLID_ANGLE_UNIT(  )SI_UNIT( $, .STERADIAN. ) );
#50 = PRESENTATION_STYLE_ASSIGNMENT( ( #120 ) );
#51 = EDGE_CURVE( '', #75, #89, #121, .T. );
#52 = PRESENTATION_STYLE_ASSIGNMENT( ( #122 ) );
#53 = VERTEX_POINT( '', #123 );
#54 = PRESENTATION_STYLE_ASSIGNMENT( ( #124 ) );
#55 = VERTEX_POINT( '', #125 );
#56 = PRESENTATION_STYLE_ASSIGNMENT( ( #126 ) );
#57 = VERTEX_POINT( '', #127 );
#58 = PRESENTATION_STYLE_ASSIGNMENT( ( #128 ) );
#59 = ADVANCED_FACE( '', ( #129 ), #130, .F. );
#60 = PRESENTATION_STYLE_ASSIGNMENT( ( #131 ) );
#61 = EDGE_CURVE( '', #91, #75, #132, .T. );
#62 = PRESENTATION_STYLE_ASSIGNMENT( ( #133 ) );
#63 = ADVANCED_FACE( '', ( #134 ), #135, .F. );
#64 = PRESENTATION_STYLE_ASSIGNMENT( ( #136 ) );
#65 = ADVANCED_FACE( '', ( #137 ), #138, .T. );
#66 = PRESENTATION_STYLE_ASSIGNMENT( ( #139 ) );
#67 = EDGE_CURVE( '', #69, #85, #140, .T. );
#68 = PRESENTATION_STYLE_ASSIGNMENT( ( #141 ) );
#69 = VERTEX_POINT( '', #142 );
#70 = PRESENTATION_STYLE_ASSIGNMENT( ( #143 ) );
#71 = ADVANCED_FACE( '', ( #144, #145 ), #146, .F. );
#72 = PRESENTATION_STYLE_ASSIGNMENT( ( #147 ) );
#73 = EDGE_CURVE( '', #53, #55, #148, .T. );
#74 = PRESENTATION_STYLE_ASSIGNMENT( ( #149 ) );
#75 = VERTEX_POINT( '', #150 );
#76 = PRESENTATION_STYLE_ASSIGNMENT( ( #151 ) );
#77 = EDGE_CURVE( '', #57, #91, #152, .T. );
#78 = PRESENTATION_STYLE_ASSIGNMENT( ( #153 ) );
#79 = EDGE_CURVE( '', #57, #89, #154, .T. );
#80 = PRESENTATION_STYLE_ASSIGNMENT( ( #155 ) );
#81 = EDGE_CURVE( '', #89, #57, #156, .T. );
#82 = PRESENTATION_STYLE_ASSIGNMENT( ( #157 ) );
#83 = EDGE_CURVE( '', #85, #55, #158, .T. );
#84 = PRESENTATION_STYLE_ASSIGNMENT( ( #159 ) );
#85 = VERTEX_POINT( '', #160 );
#86 = PRESENTATION_STYLE_ASSIGNMENT( ( #161 ) );
#87 = ADVANCED_FACE( '', ( #162 ), #163, .T. );
#88 = PRESENTATION_STYLE_ASSIGNMENT( ( #164 ) );
#89 = VERTEX_POINT( '', #165 );
#90 = PRESENTATION_STYLE_ASSIGNMENT( ( #166 ) );
#91 = VERTEX_POINT( '', #167 );
#92 = PRESENTATION_STYLE_ASSIGNMENT( ( #168 ) );
#93 = MANIFOLD_SOLID_BREP( '1', #169 );
#94 = PRESENTATION_STYLE_ASSIGNMENT( ( #170 ) );
#95 = EDGE_CURVE( '', #75, #91, #171, .T. );
#96 = PRESENTATION_STYLE_ASSIGNMENT( ( #172 ) );
#97 = EDGE_CURVE( '', #53, #69, #173, .T. );
#98 = PRESENTATION_STYLE_ASSIGNMENT( ( #174 ) );
#99 = EDGE_CURVE( '', #55, #53, #175, .T. );
#100 = PRESENTATION_STYLE_ASSIGNMENT( ( #176 ) );
#101 = EDGE_CURVE( '', #85, #69, #177, .T. );
#102 = PRESENTATION_STYLE_ASSIGNMENT( ( #178 ) );
#103 = ADVANCED_FACE( '', ( #179, #180 ), #181, .T. );
#104 = PRODUCT( '1', '1', 'PART-1-DESC', ( #182 ) );
#105 = PRODUCT_DEFINITION( 'NONE', 'NONE', #183, #2 );
#106 = AXIS2_PLACEMENT_3D( '', #184, #185, #186 );
#109 = LENGTH_MEASURE_WITH_UNIT( LENGTH_MEASURE( 1.00000000000000 ), #187 );
#112 = DIMENSIONAL_EXPONENTS( 1.00000000000000, 0.000000000000000, 0.000000000000000, 0.000000000000000, 0.000000000000000, 0.000000000000000, 0.000000000000000 );
#114 = DIMENSIONAL_EXPONENTS( 0.000000000000000, 0.000000000000000, 0.000000000000000, 0.000000000000000, 0.000000000000000, 0.000000000000000, 0.000000000000000 );
#120 = CURVE_STYLE( '', #188, POSITIVE_LENGTH_MEASURE( 1.00000000000000E-006 ), #189 );
#121 = LINE( '', #190, #191 );
#122 = POINT_STYLE( ' ', #192, POSITIVE_LENGTH_MEASURE( 1.00000000000000E-006 ), #193 );
#123 = CARTESIAN_POINT( '', ( 0.000000000000000, 0.000000000000000, -36.8000000000000 ) );
#124 = POINT_STYLE( ' ', #194, POSITIVE_LENGTH_MEASURE( 1.00000000000000E-006 ), #195 );
#125 = CARTESIAN_POINT( '', ( 0.000000000000000, 4.50655138206635E-015, 36.8000000000000 ) );
#126 = POINT_STYLE( ' ', #196, POSITIVE_LENGTH_MEASURE( 1.00000000000000E-006 ), #197 );
#127 = CARTESIAN_POINT( '', ( 0.000000000000000, 0.000000000000000, -45.0000000000000 ) );
#128 = SURFACE_STYLE_USAGE( .BOTH., #198 );
#129 = FACE_OUTER_BOUND( '', #199, .T. );
#130 = CYLINDRICAL_SURFACE( '', #200, 36.8000000000000 );
#131 = CURVE_STYLE( '', #201, POSITIVE_LENGTH_MEASURE( 1.00000000000000E-006 ), #202 );
#132 = CIRCLE( '', #203, 45.0000000000000 );
#133 = SURFACE_STYLE_USAGE( .BOTH., #204 );
#134 = FACE_OUTER_BOUND( '', #205, .T. );
#135 = CYLINDRICAL_SURFACE( '', #206, 36.8000000000000 );
#136 = SURFACE_STYLE_USAGE( .BOTH., #207 );
#137 = FACE_OUTER_BOUND( '', #208, .T. );
#138 = CYLINDRICAL_SURFACE( '', #209, 45.0000000000000 );
#139 = CURVE_STYLE( '', #210, POSITIVE_LENGTH_MEASURE( 1.00000000000000E-006 ), #211 );
#140 = CIRCLE( '', #212, 36.8000000000000 );
#141 = POINT_STYLE( ' ', #213, POSITIVE_LENGTH_MEASURE( 1.00000000000000E-006 ), #214 );
#142 = CARTESIAN_POINT( '', ( 5000.00000000000, 0.000000000000000, -36.8000000000000 ) );
#143 = SURFACE_STYLE_USAGE( .BOTH., #215 );
#144 = FACE_OUTER_BOUND( '', #216, .T. );
#145 = FACE_BOUND( '', #217, .T. );
#146 = PLANE( '', #218 );
#147 = CURVE_STYLE( '', #219, POSITIVE_LENGTH_MEASURE( 1.00000000000000E-006 ), #220 );
#148 = CIRCLE( '', #221, 36.8000000000000 );
#149 = POINT_STYLE( ' ', #222, POSITIVE_LENGTH_MEASURE( 1.00000000000000E-006 ), #223 );
#150 = CARTESIAN_POINT( '', ( 5000.00000000000, 5.51072859220070E-015, 45.0000000000000 ) );
#151 = CURVE_STYLE( '', #224, POSITIVE_LENGTH_MEASURE( 1.00000000000000E-006 ), #225 );
#152 = LINE( '', #226, #227 );
#153 = CURVE_STYLE( '', #228, POSITIVE_LENGTH_MEASURE( 1.00000000000000E-006 ), #229 );
#154 = CIRCLE( '', #230, 45.0000000000000 );
#155 = CURVE_STYLE( '', #231, POSITIVE_LENGTH_MEASURE( 1.00000000000000E-006 ), #232 );
#156 = CIRCLE( '', #233, 45.0000000000000 );
#157 = CURVE_STYLE( '', #234, POSITIVE_LENGTH_MEASURE( 1.00000000000000E-006 ), #235 );
#158 = LINE( '', #236, #237 );
#159 = POINT_STYLE( ' ', #238, POSITIVE_LENGTH_MEASURE( 1.00000000000000E-006 ), #239 );
#160 = CARTESIAN_POINT( '', ( 5000.00000000000, 4.50655138206635E-015, 36.8000000000000 ) );
#161 = SURFACE_STYLE_USAGE( .BOTH., #240 );
#162 = FACE_OUTER_BOUND( '', #241, .T. );
#163 = CYLINDRICAL_SURFACE( '', #242, 45.0000000000000 );
#164 = POINT_STYLE( ' ', #243, POSITIVE_LENGTH_MEASURE( 1.00000000000000E-006 ), #244 );
#165 = CARTESIAN_POINT( '', ( 0.000000000000000, 5.51072859220070E-015, 45.0000000000000 ) );
#166 = POINT_STYLE( ' ', #245, POSITIVE_LENGTH_MEASURE( 1.00000000000000E-006 ), #246 );
#167 = CARTESIAN_POINT( '', ( 5000.00000000000, 0.000000000000000, -45.0000000000000 ) );
#168 = SURFACE_STYLE_USAGE( .BOTH., #247 );
#169 = CLOSED_SHELL( '', ( #65, #59, #63, #87, #103, #71 ) );
#170 = CURVE_STYLE( '', #248, POSITIVE_LENGTH_MEASURE( 1.00000000000000E-006 ), #249 );
#171 = CIRCLE( '', #250, 45.0000000000000 );
#172 = CURVE_STYLE( '', #251, POSITIVE_LENGTH_MEASURE( 1.00000000000000E-006 ), #252 );
#173 = LINE( '', #253, #254 );
#174 = CURVE_STYLE( '', #255, POSITIVE_LENGTH_MEASURE( 1.00000000000000E-006 ), #256 );
#175 = CIRCLE( '', #257, 36.8000000000000 );
#176 = CURVE_STYLE( '', #258, POSITIVE_LENGTH_MEASURE( 1.00000000000000E-006 ), #259 );
#177 = CIRCLE( '', #260, 36.8000000000000 );
#178 = SURFACE_STYLE_USAGE( .BOTH., #261 );
#179 = FACE_OUTER_BOUND( '', #262, .T. );
#180 = FACE_BOUND( '', #263, .T. );
#181 = PLANE( '', #264 );
#182 = PRODUCT_CONTEXT( '', #37, 'mechanical' );
#183 = PRODUCT_DEFINITION_FORMATION_WITH_SPECIFIED_SOURCE( ' ', 'NONE', #104, .NOT_KNOWN. );
#184 = CARTESIAN_POINT( '', ( 0.000000000000000, 0.000000000000000, 0.000000000000000 ) );
#185 = DIRECTION( '', ( 0.000000000000000, 0.000000000000000, 1.00000000000000 ) );
#186 = DIRECTION( '', ( 1.00000000000000, 0.000000000000000, 0.000000000000000 ) );
#187 =  ( NAMED_UNIT( #112 )LENGTH_UNIT(  )SI_UNIT( .MILLI., .METRE. ) );
#188 = DRAUGHTING_PRE_DEFINED_CURVE_FONT( 'continuous' );
#189 = COLOUR_RGB( '', 0.689999997615810, 0.689999997615810, 0.689999997615810 );
#190 = CARTESIAN_POINT( '', ( 0.000000000000000, 5.51072859220070E-015, 45.0000000000000 ) );
#191 = VECTOR( '', #266, 1.00000000000000 );
#192 = PRE_DEFINED_MARKER( '' );
#193 = COLOUR_RGB( '', 0.689999997615810, 0.689999997615810, 0.689999997615810 );
#194 = PRE_DEFINED_MARKER( '' );
#195 = COLOUR_RGB( '', 0.689999997615810, 0.689999997615810, 0.689999997615810 );
#196 = PRE_DEFINED_MARKER( '' );
#197 = COLOUR_RGB( '', 0.689999997615810, 0.689999997615810, 0.689999997615810 );
#198 = SURFACE_SIDE_STYLE( '', ( #267 ) );
#199 = EDGE_LOOP( '', ( #268, #269, #270, #271 ) );
#200 = AXIS2_PLACEMENT_3D( '', #272, #273, #274 );
#201 = DRAUGHTING_PRE_DEFINED_CURVE_FONT( 'continuous' );
#202 = COLOUR_RGB( '', 0.689999997615810, 0.689999997615810, 0.689999997615810 );
#203 = AXIS2_PLACEMENT_3D( '', #275, #276, #277 );
#204 = SURFACE_SIDE_STYLE( '', ( #278 ) );
#205 = EDGE_LOOP( '', ( #279, #280, #281, #282 ) );
#206 = AXIS2_PLACEMENT_3D( '', #283, #284, #285 );
#207 = SURFACE_SIDE_STYLE( '', ( #286 ) );
#208 = EDGE_LOOP( '', ( #287, #288, #289, #290 ) );
#209 = AXIS2_PLACEMENT_3D( '', #291, #292, #293 );
#210 = DRAUGHTING_PRE_DEFINED_CURVE_FONT( 'continuous' );
#211 = COLOUR_RGB( '', 0.689999997615810, 0.689999997615810, 0.689999997615810 );
#212 = AXIS2_PLACEMENT_3D( '', #294, #295, #296 );
#213 = PRE_DEFINED_MARKER( '' );
#214 = COLOUR_RGB( '', 0.689999997615810, 0.689999997615810, 0.689999997615810 );
#215 = SURFACE_SIDE_STYLE( '', ( #297 ) );
#216 = EDGE_LOOP( '', ( #298, #299 ) );
#217 = EDGE_LOOP( '', ( #300, #301 ) );
#218 = AXIS2_PLACEMENT_3D( '', #302, #303, #304 );
#219 = DRAUGHTING_PRE_DEFINED_CURVE_FONT( 'continuous' );
#220 = COLOUR_RGB( '', 0.689999997615810, 0.689999997615810, 0.689999997615810 );
#221 = AXIS2_PLACEMENT_3D( '', #305, #306, #307 );
#222 = PRE_DEFINED_MARKER( '' );
#223 = COLOUR_RGB( '', 0.689999997615810, 0.689999997615810, 0.689999997615810 );
#224 = DRAUGHTING_PRE_DEFINED_CURVE_FONT( 'continuous' );
#225 = COLOUR_RGB( '', 0.689999997615810, 0.689999997615810, 0.689999997615810 );
#226 = CARTESIAN_POINT( '', ( 0.000000000000000, -5.51072859220070E-015, -45.0000000000000 ) );
#227 = VECTOR( '', #308, 1.00000000000000 );
#228 = DRAUGHTING_PRE_DEFINED_CURVE_FONT( 'continuous' );
#229 = COLOUR_RGB( '', 0.689999997615810, 0.689999997615810, 0.689999997615810 );
#230 = AXIS2_PLACEMENT_3D( '', #309, #310, #311 );
#231 = DRAUGHTING_PRE_DEFINED_CURVE_FONT( 'continuous' );
#232 = COLOUR_RGB( '', 0.689999997615810, 0.689999997615810, 0.689999997615810 );
#233 = AXIS2_PLACEMENT_3D( '', #312, #313, #314 );
#234 = DRAUGHTING_PRE_DEFINED_CURVE_FONT( 'continuous' );
#235 = COLOUR_RGB( '', 0.689999997615810, 0.689999997615810, 0.689999997615810 );
#236 = CARTESIAN_POINT( '', ( 0.000000000000000, 4.50655138206635E-015, 36.8000000000000 ) );
#237 = VECTOR( '', #315, 1.00000000000000 );
#238 = PRE_DEFINED_MARKER( '' );
#239 = COLOUR_RGB( '', 0.689999997615810, 0.689999997615810, 0.689999997615810 );
#240 = SURFACE_SIDE_STYLE( '', ( #316 ) );
#241 = EDGE_LOOP( '', ( #317, #318, #319, #320 ) );
#242 = AXIS2_PLACEMENT_3D( '', #321, #322, #323 );
#243 = PRE_DEFINED_MARKER( '' );
#244 = COLOUR_RGB( '', 0.689999997615810, 0.689999997615810, 0.689999997615810 );
#245 = PRE_DEFINED_MARKER( '' );
#246 = COLOUR_RGB( '', 0.689999997615810, 0.689999997615810, 0.689999997615810 );
#247 = SURFACE_SIDE_STYLE( '', ( #324 ) );
#248 = DRAUGHTING_PRE_DEFINED_CURVE_FONT( 'continuous' );
#249 = COLOUR_RGB( '', 0.689999997615810, 0.689999997615810, 0.689999997615810 );
#250 = AXIS2_PLACEMENT_3D( '', #325, #326, #327 );
#251 = DRAUGHTING_PRE_DEFINED_CURVE_FONT( 'continuous' );
#252 = COLOUR_RGB( '', 0.689999997615810, 0.689999997615810, 0.689999997615810 );
#253 = CARTESIAN_POINT( '', ( 0.000000000000000, -4.50655138206635E-015, -36.8000000000000 ) );
#254 = VECTOR( '', #328, 1.00000000000000 );
#255 = DRAUGHTING_PRE_DEFINED_CURVE_FONT( 'continuous' );
#256 = COLOUR_RGB( '', 0.689999997615810, 0.689999997615810, 0.689999997615810 );
#257 = AXIS2_PLACEMENT_3D( '', #329, #330, #331 );
#258 = DRAUGHTING_PRE_DEFINED_CURVE_FONT( 'continuous' );
#259 = COLOUR_RGB( '', 0.689999997615810, 0.689999997615810, 0.689999997615810 );
#260 = AXIS2_PLACEMENT_3D( '', #332, #333, #334 );
#261 = SURFACE_SIDE_STYLE( '', ( #335 ) );
#262 = EDGE_LOOP( '', ( #336, #337 ) );
#263 = EDGE_LOOP( '', ( #338, #339 ) );
#264 = AXIS2_PLACEMENT_3D( '', #340, #341, #342 );
#266 = DIRECTION( '', ( -1.00000000000000, -0.000000000000000, -0.000000000000000 ) );
#267 = SURFACE_STYLE_FILL_AREA( #343 );
#268 = ORIENTED_EDGE( '', *, *, #97, .F. );
#269 = ORIENTED_EDGE( '', *, *, #99, .F. );
#270 = ORIENTED_EDGE( '', *, *, #83, .F. );
#271 = ORIENTED_EDGE( '', *, *, #101, .T. );
#272 = CARTESIAN_POINT( '', ( 0.000000000000000, 0.000000000000000, 0.000000000000000 ) );
#273 = DIRECTION( '', ( -1.00000000000000, -0.000000000000000, -0.000000000000000 ) );
#274 = DIRECTION( '', ( 0.000000000000000, 0.000000000000000, -1.00000000000000 ) );
#275 = CARTESIAN_POINT( '', ( 5000.00000000000, 0.000000000000000, 0.000000000000000 ) );
#276 = DIRECTION( '', ( -1.00000000000000, 0.000000000000000, 0.000000000000000 ) );
#277 = DIRECTION( '', ( 0.000000000000000, 0.000000000000000, -1.00000000000000 ) );
#278 = SURFACE_STYLE_FILL_AREA( #344 );
#279 = ORIENTED_EDGE( '', *, *, #97, .T. );
#280 = ORIENTED_EDGE( '', *, *, #67, .T. );
#281 = ORIENTED_EDGE( '', *, *, #83, .T. );
#282 = ORIENTED_EDGE( '', *, *, #73, .F. );
#283 = CARTESIAN_POINT( '', ( 0.000000000000000, 0.000000000000000, 0.000000000000000 ) );
#284 = DIRECTION( '', ( -1.00000000000000, -0.000000000000000, -0.000000000000000 ) );
#285 = DIRECTION( '', ( 0.000000000000000, 0.000000000000000, -1.00000000000000 ) );
#286 = SURFACE_STYLE_FILL_AREA( #345 );
#287 = ORIENTED_EDGE( '', *, *, #77, .F. );
#288 = ORIENTED_EDGE( '', *, *, #79, .T. );
#289 = ORIENTED_EDGE( '', *, *, #51, .F. );
#290 = ORIENTED_EDGE( '', *, *, #95, .T. );
#291 = CARTESIAN_POINT( '', ( 0.000000000000000, 0.000000000000000, 0.000000000000000 ) );
#292 = DIRECTION( '', ( -1.00000000000000, -0.000000000000000, -0.000000000000000 ) );
#293 = DIRECTION( '', ( 0.000000000000000, 0.000000000000000, -1.00000000000000 ) );
#294 = CARTESIAN_POINT( '', ( 5000.00000000000, 0.000000000000000, 0.000000000000000 ) );
#295 = DIRECTION( '', ( 1.00000000000000, 0.000000000000000, 0.000000000000000 ) );
#296 = DIRECTION( '', ( 0.000000000000000, 0.000000000000000, -1.00000000000000 ) );
#297 = SURFACE_STYLE_FILL_AREA( #346 );
#298 = ORIENTED_EDGE( '', *, *, #79, .F. );
#299 = ORIENTED_EDGE( '', *, *, #81, .F. );
#300 = ORIENTED_EDGE( '', *, *, #73, .T. );
#301 = ORIENTED_EDGE( '', *, *, #99, .T. );
#302 = CARTESIAN_POINT( '', ( 0.000000000000000, 0.000000000000000, 0.000000000000000 ) );
#303 = DIRECTION( '', ( 1.00000000000000, 0.000000000000000, 0.000000000000000 ) );
#304 = DIRECTION( '', ( 0.000000000000000, 0.000000000000000, -1.00000000000000 ) );
#305 = CARTESIAN_POINT( '', ( 0.000000000000000, 0.000000000000000, 0.000000000000000 ) );
#306 = DIRECTION( '', ( 1.00000000000000, -0.000000000000000, 0.000000000000000 ) );
#307 = DIRECTION( '', ( 0.000000000000000, 0.000000000000000, -1.00000000000000 ) );
#308 = DIRECTION( '', ( 1.00000000000000, 0.000000000000000, 0.000000000000000 ) );
#309 = CARTESIAN_POINT( '', ( 0.000000000000000, 0.000000000000000, 0.000000000000000 ) );
#310 = DIRECTION( '', ( 1.00000000000000, -0.000000000000000, 0.000000000000000 ) );
#311 = DIRECTION( '', ( 0.000000000000000, 0.000000000000000, -1.00000000000000 ) );
#312 = CARTESIAN_POINT( '', ( 0.000000000000000, 0.000000000000000, 0.000000000000000 ) );
#313 = DIRECTION( '', ( 1.00000000000000, -0.000000000000000, 0.000000000000000 ) );
#314 = DIRECTION( '', ( 0.000000000000000, 0.000000000000000, -1.00000000000000 ) );
#315 = DIRECTION( '', ( -1.00000000000000, 0.000000000000000, 0.000000000000000 ) );
#316 = SURFACE_STYLE_FILL_AREA( #347 );
#317 = ORIENTED_EDGE( '', *, *, #77, .T. );
#318 = ORIENTED_EDGE( '', *, *, #61, .T. );
#319 = ORIENTED_EDGE( '', *, *, #51, .T. );
#320 = ORIENTED_EDGE( '', *, *, #81, .T. );
#321 = CARTESIAN_POINT( '', ( 0.000000000000000, 0.000000000000000, 0.000000000000000 ) );
#322 = DIRECTION( '', ( -1.00000000000000, -0.000000000000000, -0.000000000000000 ) );
#323 = DIRECTION( '', ( 0.000000000000000, 0.000000000000000, -1.00000000000000 ) );
#324 = SURFACE_STYLE_FILL_AREA( #348 );
#325 = CARTESIAN_POINT( '', ( 5000.00000000000, 0.000000000000000, 0.000000000000000 ) );
#326 = DIRECTION( '', ( -1.00000000000000, 0.000000000000000, 0.000000000000000 ) );
#327 = DIRECTION( '', ( 0.000000000000000, 0.000000000000000, -1.00000000000000 ) );
#328 = DIRECTION( '', ( 1.00000000000000, 0.000000000000000, 0.000000000000000 ) );
#329 = CARTESIAN_POINT( '', ( 0.000000000000000, 0.000000000000000, 0.000000000000000 ) );
#330 = DIRECTION( '', ( 1.00000000000000, -0.000000000000000, 0.000000000000000 ) );
#331 = DIRECTION( '', ( 0.000000000000000, 0.000000000000000, -1.00000000000000 ) );
#332 = CARTESIAN_POINT( '', ( 5000.00000000000, 0.000000000000000, 0.000000000000000 ) );
#333 = DIRECTION( '', ( 1.00000000000000, 0.000000000000000, 0.000000000000000 ) );
#334 = DIRECTION( '', ( 0.000000000000000, 0.000000000000000, -1.00000000000000 ) );
#335 = SURFACE_STYLE_FILL_AREA( #349 );
#336 = ORIENTED_EDGE( '', *, *, #61, .F. );
#337 = ORIENTED_EDGE( '', *, *, #95, .F. );
#338 = ORIENTED_EDGE( '', *, *, #67, .F. );
#339 = ORIENTED_EDGE( '', *, *, #101, .F. );
#340 = CARTESIAN_POINT( '', ( 5000.00000000000, 0.000000000000000, 0.000000000000000 ) );
#341 = DIRECTION( '', ( 1.00000000000000, 0.000000000000000, 0.000000000000000 ) );
#342 = DIRECTION( '', ( 0.000000000000000, 0.000000000000000, -1.00000000000000 ) );
#343 = FILL_AREA_STYLE( '', ( #350 ) );
#344 = FILL_AREA_STYLE( '', ( #351 ) );
#345 = FILL_AREA_STYLE( '', ( #352 ) );
#346 = FILL_AREA_STYLE( '', ( #353 ) );
#347 = FILL_AREA_STYLE( '', ( #354 ) );
#348 = FILL_AREA_STYLE( '', ( #355 ) );
#349 = FILL_AREA_STYLE( '', ( #356 ) );
#350 = FILL_AREA_STYLE_COLOUR( '', #357 );
#351 = FILL_AREA_STYLE_COLOUR( '', #358 );
#352 = FILL_AREA_STYLE_COLOUR( '', #359 );
#353 = FILL_AREA_STYLE_COLOUR( '', #360 );
#354 = FILL_AREA_STYLE_COLOUR( '', #361 );
#355 = FILL_AREA_STYLE_COLOUR( '', #362 );
#356 = FILL_AREA_STYLE_COLOUR( '', #363 );
#357 = COLOUR_RGB( '', 0.689999997615810, 0.689999997615810, 0.689999997615810 );
#358 = COLOUR_RGB( '', 0.689999997615810, 0.689999997615810, 0.689999997615810 );
#359 = COLOUR_RGB( '', 0.689999997615810, 0.689999997615810, 0.689999997615810 );
#360 = COLOUR_RGB( '', 0.689999997615810, 0.689999997615810, 0.689999997615810 );
#361 = COLOUR_RGB( '', 0.689999997615810, 0.689999997615810, 0.689999997615810 );
#362 = COLOUR_RGB( '', 0.689999997615810, 0.689999997615810, 0.689999997615810 );
#363 = COLOUR_RGB( '', 0.689999997615810, 0.689999997615810, 0.689999997615810 );
ENDSEC;
END-ISO-10303-21;
