ISO-10303-21;
HEADER;
FILE_DESCRIPTION( ( '' ), '1' );
FILE_NAME( '//se01002/users/anro/AGRU_12705080000_PPH_grau_Rohr__5m_800X12_0__Ventilation_10.stp', '2018-02-07T08:12:59', ( '' ), ( '' ), ' ', ' ', ' ' );
FILE_SCHEMA( ( 'automotive_design' ) );
ENDSEC;
DATA;
#1 = MECHANICAL_DESIGN_GEOMETRIC_PRESENTATION_REPRESENTATION( ' ', ( #10, #11, #12, #13, #14, #15, #16, #17, #18, #19, #20, #21, #22, #23, #24, #25, #26, #27, #28, #29, #30, #31, #32, #33, #34, #35, #36 ), #6 );
#2 = PRODUCT_DEFINITION_CONTEXT( '', #37, 'design' );
#3 = APPLICATION_PROTOCOL_DEFINITION( 'INTERNATIONAL STANDARD', 'automotive_design', 1994, #37 );
#4 = PRODUCT_CATEGORY_RELATIONSHIP( 'NONE', 'NONE', #38, #39 );
#5 = SHAPE_DEFINITION_REPRESENTATION( #40, #41 );
#6 =  ( GEOMETRIC_REPRESENTATION_CONTEXT( 3 )GLOBAL_UNCERTAINTY_ASSIGNED_CONTEXT( ( #44 ) )GLOBAL_UNIT_ASSIGNED_CONTEXT( ( #46, #47, #48 ) )REPRESENTATION_CONTEXT( 'NONE', 'WORKSPACE' ) );
#10 = STYLED_ITEM( '', ( #50 ), #51 );
#11 = STYLED_ITEM( '', ( #52 ), #53 );
#12 = STYLED_ITEM( '', ( #54 ), #55 );
#13 = STYLED_ITEM( '', ( #56 ), #57 );
#14 = STYLED_ITEM( '', ( #58 ), #59 );
#15 = STYLED_ITEM( '', ( #60 ), #61 );
#16 = STYLED_ITEM( '', ( #62 ), #63 );
#17 = STYLED_ITEM( '', ( #64 ), #65 );
#18 = STYLED_ITEM( '', ( #66 ), #67 );
#19 = STYLED_ITEM( '', ( #68 ), #69 );
#20 = STYLED_ITEM( '', ( #70 ), #71 );
#21 = STYLED_ITEM( '', ( #72 ), #73 );
#22 = STYLED_ITEM( '', ( #74 ), #75 );
#23 = STYLED_ITEM( '', ( #76 ), #77 );
#24 = STYLED_ITEM( '', ( #78 ), #79 );
#25 = STYLED_ITEM( '', ( #80 ), #81 );
#26 = STYLED_ITEM( '', ( #82 ), #83 );
#27 = STYLED_ITEM( '', ( #84 ), #85 );
#28 = STYLED_ITEM( '', ( #86 ), #87 );
#29 = STYLED_ITEM( '', ( #88 ), #89 );
#30 = STYLED_ITEM( '', ( #90 ), #91 );
#31 = STYLED_ITEM( '', ( #92 ), #93 );
#32 = STYLED_ITEM( '', ( #94 ), #95 );
#33 = STYLED_ITEM( '', ( #96 ), #97 );
#34 = STYLED_ITEM( '', ( #98 ), #99 );
#35 = STYLED_ITEM( '', ( #100 ), #101 );
#36 = STYLED_ITEM( '', ( #102 ), #103 );
#37 = APPLICATION_CONTEXT( ' ' );
#38 = PRODUCT_CATEGORY( 'part', 'NONE' );
#39 = PRODUCT_RELATED_PRODUCT_CATEGORY( 'detail', ' ', ( #104 ) );
#40 = PRODUCT_DEFINITION_SHAPE( 'NONE', 'NONE', #105 );
#41 = ADVANCED_BREP_SHAPE_REPRESENTATION( '1', ( #71, #106 ), #6 );
#44 = UNCERTAINTY_MEASURE_WITH_UNIT( LENGTH_MEASURE( 1.00000000000000E-006 ), #46, '', '' );
#46 =  ( CONVERSION_BASED_UNIT( 'MILLIMETRE', #109 )LENGTH_UNIT(  )NAMED_UNIT( #112 ) );
#47 =  ( NAMED_UNIT( #114 )PLANE_ANGLE_UNIT(  )SI_UNIT( $, .RADIAN. ) );
#48 =  ( NAMED_UNIT( #114 )SOLID_ANGLE_UNIT(  )SI_UNIT( $, .STERADIAN. ) );
#50 = PRESENTATION_STYLE_ASSIGNMENT( ( #120 ) );
#51 = VERTEX_POINT( '', #121 );
#52 = PRESENTATION_STYLE_ASSIGNMENT( ( #122 ) );
#53 = VERTEX_POINT( '', #123 );
#54 = PRESENTATION_STYLE_ASSIGNMENT( ( #124 ) );
#55 = EDGE_CURVE( '', #75, #95, #125, .T. );
#56 = PRESENTATION_STYLE_ASSIGNMENT( ( #126 ) );
#57 = EDGE_CURVE( '', #53, #51, #127, .T. );
#58 = PRESENTATION_STYLE_ASSIGNMENT( ( #128 ) );
#59 = EDGE_CURVE( '', #63, #89, #129, .T. );
#60 = PRESENTATION_STYLE_ASSIGNMENT( ( #130 ) );
#61 = EDGE_CURVE( '', #51, #53, #131, .T. );
#62 = PRESENTATION_STYLE_ASSIGNMENT( ( #132 ) );
#63 = VERTEX_POINT( '', #133 );
#64 = PRESENTATION_STYLE_ASSIGNMENT( ( #134 ) );
#65 = EDGE_CURVE( '', #51, #95, #135, .T. );
#66 = PRESENTATION_STYLE_ASSIGNMENT( ( #136 ) );
#67 = ADVANCED_FACE( '', ( #137, #138 ), #139, .F. );
#68 = PRESENTATION_STYLE_ASSIGNMENT( ( #140 ) );
#69 = EDGE_CURVE( '', #91, #85, #141, .T. );
#70 = PRESENTATION_STYLE_ASSIGNMENT( ( #142 ) );
#71 = MANIFOLD_SOLID_BREP( '1', #143 );
#72 = PRESENTATION_STYLE_ASSIGNMENT( ( #144 ) );
#73 = ADVANCED_FACE( '', ( #145 ), #146, .F. );
#74 = PRESENTATION_STYLE_ASSIGNMENT( ( #147 ) );
#75 = VERTEX_POINT( '', #148 );
#76 = PRESENTATION_STYLE_ASSIGNMENT( ( #149 ) );
#77 = EDGE_CURVE( '', #95, #75, #150, .T. );
#78 = PRESENTATION_STYLE_ASSIGNMENT( ( #151 ) );
#79 = ADVANCED_FACE( '', ( #152 ), #153, .F. );
#80 = PRESENTATION_STYLE_ASSIGNMENT( ( #154 ) );
#81 = EDGE_CURVE( '', #63, #85, #155, .T. );
#82 = PRESENTATION_STYLE_ASSIGNMENT( ( #156 ) );
#83 = EDGE_CURVE( '', #89, #91, #157, .T. );
#84 = PRESENTATION_STYLE_ASSIGNMENT( ( #158 ) );
#85 = VERTEX_POINT( '', #159 );
#86 = PRESENTATION_STYLE_ASSIGNMENT( ( #160 ) );
#87 = ADVANCED_FACE( '', ( #161 ), #162, .T. );
#88 = PRESENTATION_STYLE_ASSIGNMENT( ( #163 ) );
#89 = VERTEX_POINT( '', #164 );
#90 = PRESENTATION_STYLE_ASSIGNMENT( ( #165 ) );
#91 = VERTEX_POINT( '', #166 );
#92 = PRESENTATION_STYLE_ASSIGNMENT( ( #167 ) );
#93 = EDGE_CURVE( '', #91, #89, #168, .T. );
#94 = PRESENTATION_STYLE_ASSIGNMENT( ( #169 ) );
#95 = VERTEX_POINT( '', #170 );
#96 = PRESENTATION_STYLE_ASSIGNMENT( ( #171 ) );
#97 = EDGE_CURVE( '', #75, #53, #172, .T. );
#98 = PRESENTATION_STYLE_ASSIGNMENT( ( #173 ) );
#99 = EDGE_CURVE( '', #85, #63, #174, .T. );
#100 = PRESENTATION_STYLE_ASSIGNMENT( ( #175 ) );
#101 = ADVANCED_FACE( '', ( #176, #177 ), #178, .T. );
#102 = PRESENTATION_STYLE_ASSIGNMENT( ( #179 ) );
#103 = ADVANCED_FACE( '', ( #180 ), #181, .T. );
#104 = PRODUCT( '1', '1', 'PART-1-DESC', ( #182 ) );
#105 = PRODUCT_DEFINITION( 'NONE', 'NONE', #183, #2 );
#106 = AXIS2_PLACEMENT_3D( '', #184, #185, #186 );
#109 = LENGTH_MEASURE_WITH_UNIT( LENGTH_MEASURE( 1.00000000000000 ), #187 );
#112 = DIMENSIONAL_EXPONENTS( 1.00000000000000, 0.000000000000000, 0.000000000000000, 0.000000000000000, 0.000000000000000, 0.000000000000000, 0.000000000000000 );
#114 = DIMENSIONAL_EXPONENTS( 0.000000000000000, 0.000000000000000, 0.000000000000000, 0.000000000000000, 0.000000000000000, 0.000000000000000, 0.000000000000000 );
#120 = POINT_STYLE( ' ', #188, POSITIVE_LENGTH_MEASURE( 1.00000000000000E-006 ), #189 );
#121 = CARTESIAN_POINT( '', ( 0.000000000000000, 0.000000000000000, -388.000000000000 ) );
#122 = POINT_STYLE( ' ', #190, POSITIVE_LENGTH_MEASURE( 1.00000000000000E-006 ), #191 );
#123 = CARTESIAN_POINT( '', ( 0.000000000000000, 4.75147265283082E-014, 388.000000000000 ) );
#124 = CURVE_STYLE( '', #192, POSITIVE_LENGTH_MEASURE( 1.00000000000000E-006 ), #193 );
#125 = CIRCLE( '', #194, 388.000000000000 );
#126 = CURVE_STYLE( '', #195, POSITIVE_LENGTH_MEASURE( 1.00000000000000E-006 ), #196 );
#127 = CIRCLE( '', #197, 388.000000000000 );
#128 = CURVE_STYLE( '', #198, POSITIVE_LENGTH_MEASURE( 1.00000000000000E-006 ), #199 );
#129 = LINE( '', #200, #201 );
#130 = CURVE_STYLE( '', #202, POSITIVE_LENGTH_MEASURE( 1.00000000000000E-006 ), #203 );
#131 = CIRCLE( '', #204, 388.000000000000 );
#132 = POINT_STYLE( ' ', #205, POSITIVE_LENGTH_MEASURE( 1.00000000000000E-006 ), #206 );
#133 = CARTESIAN_POINT( '', ( 0.000000000000000, 0.000000000000000, -400.000000000000 ) );
#134 = CURVE_STYLE( '', #207, POSITIVE_LENGTH_MEASURE( 1.00000000000000E-006 ), #208 );
#135 = LINE( '', #209, #210 );
#136 = SURFACE_STYLE_USAGE( .BOTH., #211 );
#137 = FACE_OUTER_BOUND( '', #212, .T. );
#138 = FACE_BOUND( '', #213, .T. );
#139 = PLANE( '', #214 );
#140 = CURVE_STYLE( '', #215, POSITIVE_LENGTH_MEASURE( 1.00000000000000E-006 ), #216 );
#141 = LINE( '', #217, #218 );
#142 = SURFACE_STYLE_USAGE( .BOTH., #219 );
#143 = CLOSED_SHELL( '', ( #103, #79, #73, #87, #101, #67 ) );
#144 = SURFACE_STYLE_USAGE( .BOTH., #220 );
#145 = FACE_OUTER_BOUND( '', #221, .T. );
#146 = CYLINDRICAL_SURFACE( '', #222, 388.000000000000 );
#147 = POINT_STYLE( ' ', #223, POSITIVE_LENGTH_MEASURE( 1.00000000000000E-006 ), #224 );
#148 = CARTESIAN_POINT( '', ( 5000.00000000000, 4.75147265283082E-014, 388.000000000000 ) );
#149 = CURVE_STYLE( '', #225, POSITIVE_LENGTH_MEASURE( 1.00000000000000E-006 ), #226 );
#150 = CIRCLE( '', #227, 388.000000000000 );
#151 = SURFACE_STYLE_USAGE( .BOTH., #228 );
#152 = FACE_OUTER_BOUND( '', #229, .T. );
#153 = CYLINDRICAL_SURFACE( '', #230, 388.000000000000 );
#154 = CURVE_STYLE( '', #231, POSITIVE_LENGTH_MEASURE( 1.00000000000000E-006 ), #232 );
#155 = CIRCLE( '', #233, 400.000000000000 );
#156 = CURVE_STYLE( '', #234, POSITIVE_LENGTH_MEASURE( 1.00000000000000E-006 ), #235 );
#157 = CIRCLE( '', #236, 400.000000000000 );
#158 = POINT_STYLE( ' ', #237, POSITIVE_LENGTH_MEASURE( 1.00000000000000E-006 ), #238 );
#159 = CARTESIAN_POINT( '', ( 0.000000000000000, 4.89842541528951E-014, 400.000000000000 ) );
#160 = SURFACE_STYLE_USAGE( .BOTH., #239 );
#161 = FACE_OUTER_BOUND( '', #240, .T. );
#162 = CYLINDRICAL_SURFACE( '', #241, 400.000000000000 );
#163 = POINT_STYLE( ' ', #242, POSITIVE_LENGTH_MEASURE( 1.00000000000000E-006 ), #243 );
#164 = CARTESIAN_POINT( '', ( 5000.00000000000, 0.000000000000000, -400.000000000000 ) );
#165 = POINT_STYLE( ' ', #244, POSITIVE_LENGTH_MEASURE( 1.00000000000000E-006 ), #245 );
#166 = CARTESIAN_POINT( '', ( 5000.00000000000, 4.89842541528951E-014, 400.000000000000 ) );
#167 = CURVE_STYLE( '', #246, POSITIVE_LENGTH_MEASURE( 1.00000000000000E-006 ), #247 );
#168 = CIRCLE( '', #248, 400.000000000000 );
#169 = POINT_STYLE( ' ', #249, POSITIVE_LENGTH_MEASURE( 1.00000000000000E-006 ), #250 );
#170 = CARTESIAN_POINT( '', ( 5000.00000000000, 0.000000000000000, -388.000000000000 ) );
#171 = CURVE_STYLE( '', #251, POSITIVE_LENGTH_MEASURE( 1.00000000000000E-006 ), #252 );
#172 = LINE( '', #253, #254 );
#173 = CURVE_STYLE( '', #255, POSITIVE_LENGTH_MEASURE( 1.00000000000000E-006 ), #256 );
#174 = CIRCLE( '', #257, 400.000000000000 );
#175 = SURFACE_STYLE_USAGE( .BOTH., #258 );
#176 = FACE_OUTER_BOUND( '', #259, .T. );
#177 = FACE_BOUND( '', #260, .T. );
#178 = PLANE( '', #261 );
#179 = SURFACE_STYLE_USAGE( .BOTH., #262 );
#180 = FACE_OUTER_BOUND( '', #263, .T. );
#181 = CYLINDRICAL_SURFACE( '', #264, 400.000000000000 );
#182 = PRODUCT_CONTEXT( '', #37, 'mechanical' );
#183 = PRODUCT_DEFINITION_FORMATION_WITH_SPECIFIED_SOURCE( ' ', 'NONE', #104, .NOT_KNOWN. );
#184 = CARTESIAN_POINT( '', ( 0.000000000000000, 0.000000000000000, 0.000000000000000 ) );
#185 = DIRECTION( '', ( 0.000000000000000, 0.000000000000000, 1.00000000000000 ) );
#186 = DIRECTION( '', ( 1.00000000000000, 0.000000000000000, 0.000000000000000 ) );
#187 =  ( NAMED_UNIT( #112 )LENGTH_UNIT(  )SI_UNIT( .MILLI., .METRE. ) );
#188 = PRE_DEFINED_MARKER( '' );
#189 = COLOUR_RGB( '', 0.689999997615810, 0.689999997615810, 0.689999997615810 );
#190 = PRE_DEFINED_MARKER( '' );
#191 = COLOUR_RGB( '', 0.689999997615810, 0.689999997615810, 0.689999997615810 );
#192 = DRAUGHTING_PRE_DEFINED_CURVE_FONT( 'continuous' );
#193 = COLOUR_RGB( '', 0.689999997615810, 0.689999997615810, 0.689999997615810 );
#194 = AXIS2_PLACEMENT_3D( '', #266, #267, #268 );
#195 = DRAUGHTING_PRE_DEFINED_CURVE_FONT( 'continuous' );
#196 = COLOUR_RGB( '', 0.689999997615810, 0.689999997615810, 0.689999997615810 );
#197 = AXIS2_PLACEMENT_3D( '', #269, #270, #271 );
#198 = DRAUGHTING_PRE_DEFINED_CURVE_FONT( 'continuous' );
#199 = COLOUR_RGB( '', 0.689999997615810, 0.689999997615810, 0.689999997615810 );
#200 = CARTESIAN_POINT( '', ( 0.000000000000000, -4.89842541528951E-014, -400.000000000000 ) );
#201 = VECTOR( '', #272, 1.00000000000000 );
#202 = DRAUGHTING_PRE_DEFINED_CURVE_FONT( 'continuous' );
#203 = COLOUR_RGB( '', 0.689999997615810, 0.689999997615810, 0.689999997615810 );
#204 = AXIS2_PLACEMENT_3D( '', #273, #274, #275 );
#205 = PRE_DEFINED_MARKER( '' );
#206 = COLOUR_RGB( '', 0.689999997615810, 0.689999997615810, 0.689999997615810 );
#207 = DRAUGHTING_PRE_DEFINED_CURVE_FONT( 'continuous' );
#208 = COLOUR_RGB( '', 0.689999997615810, 0.689999997615810, 0.689999997615810 );
#209 = CARTESIAN_POINT( '', ( 0.000000000000000, -4.75147265283082E-014, -388.000000000000 ) );
#210 = VECTOR( '', #276, 1.00000000000000 );
#211 = SURFACE_SIDE_STYLE( '', ( #277 ) );
#212 = EDGE_LOOP( '', ( #278, #279 ) );
#213 = EDGE_LOOP( '', ( #280, #281 ) );
#214 = AXIS2_PLACEMENT_3D( '', #282, #283, #284 );
#215 = DRAUGHTING_PRE_DEFINED_CURVE_FONT( 'continuous' );
#216 = COLOUR_RGB( '', 0.689999997615810, 0.689999997615810, 0.689999997615810 );
#217 = CARTESIAN_POINT( '', ( 0.000000000000000, 4.89842541528951E-014, 400.000000000000 ) );
#218 = VECTOR( '', #285, 1.00000000000000 );
#219 = SURFACE_SIDE_STYLE( '', ( #286 ) );
#220 = SURFACE_SIDE_STYLE( '', ( #287 ) );
#221 = EDGE_LOOP( '', ( #288, #289, #290, #291 ) );
#222 = AXIS2_PLACEMENT_3D( '', #292, #293, #294 );
#223 = PRE_DEFINED_MARKER( '' );
#224 = COLOUR_RGB( '', 0.689999997615810, 0.689999997615810, 0.689999997615810 );
#225 = DRAUGHTING_PRE_DEFINED_CURVE_FONT( 'continuous' );
#226 = COLOUR_RGB( '', 0.689999997615810, 0.689999997615810, 0.689999997615810 );
#227 = AXIS2_PLACEMENT_3D( '', #295, #296, #297 );
#228 = SURFACE_SIDE_STYLE( '', ( #298 ) );
#229 = EDGE_LOOP( '', ( #299, #300, #301, #302 ) );
#230 = AXIS2_PLACEMENT_3D( '', #303, #304, #305 );
#231 = DRAUGHTING_PRE_DEFINED_CURVE_FONT( 'continuous' );
#232 = COLOUR_RGB( '', 0.689999997615810, 0.689999997615810, 0.689999997615810 );
#233 = AXIS2_PLACEMENT_3D( '', #306, #307, #308 );
#234 = DRAUGHTING_PRE_DEFINED_CURVE_FONT( 'continuous' );
#235 = COLOUR_RGB( '', 0.689999997615810, 0.689999997615810, 0.689999997615810 );
#236 = AXIS2_PLACEMENT_3D( '', #309, #310, #311 );
#237 = PRE_DEFINED_MARKER( '' );
#238 = COLOUR_RGB( '', 0.689999997615810, 0.689999997615810, 0.689999997615810 );
#239 = SURFACE_SIDE_STYLE( '', ( #312 ) );
#240 = EDGE_LOOP( '', ( #313, #314, #315, #316 ) );
#241 = AXIS2_PLACEMENT_3D( '', #317, #318, #319 );
#242 = PRE_DEFINED_MARKER( '' );
#243 = COLOUR_RGB( '', 0.689999997615810, 0.689999997615810, 0.689999997615810 );
#244 = PRE_DEFINED_MARKER( '' );
#245 = COLOUR_RGB( '', 0.689999997615810, 0.689999997615810, 0.689999997615810 );
#246 = DRAUGHTING_PRE_DEFINED_CURVE_FONT( 'continuous' );
#247 = COLOUR_RGB( '', 0.689999997615810, 0.689999997615810, 0.689999997615810 );
#248 = AXIS2_PLACEMENT_3D( '', #320, #321, #322 );
#249 = PRE_DEFINED_MARKER( '' );
#250 = COLOUR_RGB( '', 0.689999997615810, 0.689999997615810, 0.689999997615810 );
#251 = DRAUGHTING_PRE_DEFINED_CURVE_FONT( 'continuous' );
#252 = COLOUR_RGB( '', 0.689999997615810, 0.689999997615810, 0.689999997615810 );
#253 = CARTESIAN_POINT( '', ( 0.000000000000000, 4.75147265283082E-014, 388.000000000000 ) );
#254 = VECTOR( '', #323, 1.00000000000000 );
#255 = DRAUGHTING_PRE_DEFINED_CURVE_FONT( 'continuous' );
#256 = COLOUR_RGB( '', 0.689999997615810, 0.689999997615810, 0.689999997615810 );
#257 = AXIS2_PLACEMENT_3D( '', #324, #325, #326 );
#258 = SURFACE_SIDE_STYLE( '', ( #327 ) );
#259 = EDGE_LOOP( '', ( #328, #329 ) );
#260 = EDGE_LOOP( '', ( #330, #331 ) );
#261 = AXIS2_PLACEMENT_3D( '', #332, #333, #334 );
#262 = SURFACE_SIDE_STYLE( '', ( #335 ) );
#263 = EDGE_LOOP( '', ( #336, #337, #338, #339 ) );
#264 = AXIS2_PLACEMENT_3D( '', #340, #341, #342 );
#266 = CARTESIAN_POINT( '', ( 5000.00000000000, 0.000000000000000, 0.000000000000000 ) );
#267 = DIRECTION( '', ( 1.00000000000000, 0.000000000000000, 0.000000000000000 ) );
#268 = DIRECTION( '', ( 0.000000000000000, 0.000000000000000, -1.00000000000000 ) );
#269 = CARTESIAN_POINT( '', ( 0.000000000000000, 0.000000000000000, 0.000000000000000 ) );
#270 = DIRECTION( '', ( 1.00000000000000, -0.000000000000000, 0.000000000000000 ) );
#271 = DIRECTION( '', ( 0.000000000000000, 0.000000000000000, -1.00000000000000 ) );
#272 = DIRECTION( '', ( 1.00000000000000, 0.000000000000000, 0.000000000000000 ) );
#273 = CARTESIAN_POINT( '', ( 0.000000000000000, 0.000000000000000, 0.000000000000000 ) );
#274 = DIRECTION( '', ( 1.00000000000000, -0.000000000000000, 0.000000000000000 ) );
#275 = DIRECTION( '', ( 0.000000000000000, 0.000000000000000, -1.00000000000000 ) );
#276 = DIRECTION( '', ( 1.00000000000000, 0.000000000000000, 0.000000000000000 ) );
#277 = SURFACE_STYLE_FILL_AREA( #343 );
#278 = ORIENTED_EDGE( '', *, *, #81, .F. );
#279 = ORIENTED_EDGE( '', *, *, #99, .F. );
#280 = ORIENTED_EDGE( '', *, *, #61, .T. );
#281 = ORIENTED_EDGE( '', *, *, #57, .T. );
#282 = CARTESIAN_POINT( '', ( 0.000000000000000, 0.000000000000000, 0.000000000000000 ) );
#283 = DIRECTION( '', ( 1.00000000000000, 0.000000000000000, 0.000000000000000 ) );
#284 = DIRECTION( '', ( 0.000000000000000, 0.000000000000000, -1.00000000000000 ) );
#285 = DIRECTION( '', ( -1.00000000000000, -0.000000000000000, -0.000000000000000 ) );
#286 = SURFACE_STYLE_FILL_AREA( #344 );
#287 = SURFACE_STYLE_FILL_AREA( #345 );
#288 = ORIENTED_EDGE( '', *, *, #65, .T. );
#289 = ORIENTED_EDGE( '', *, *, #77, .T. );
#290 = ORIENTED_EDGE( '', *, *, #97, .T. );
#291 = ORIENTED_EDGE( '', *, *, #61, .F. );
#292 = CARTESIAN_POINT( '', ( 0.000000000000000, 0.000000000000000, 0.000000000000000 ) );
#293 = DIRECTION( '', ( -1.00000000000000, -0.000000000000000, -0.000000000000000 ) );
#294 = DIRECTION( '', ( 0.000000000000000, 0.000000000000000, -1.00000000000000 ) );
#295 = CARTESIAN_POINT( '', ( 5000.00000000000, 0.000000000000000, 0.000000000000000 ) );
#296 = DIRECTION( '', ( 1.00000000000000, 0.000000000000000, 0.000000000000000 ) );
#297 = DIRECTION( '', ( 0.000000000000000, 0.000000000000000, -1.00000000000000 ) );
#298 = SURFACE_STYLE_FILL_AREA( #346 );
#299 = ORIENTED_EDGE( '', *, *, #65, .F. );
#300 = ORIENTED_EDGE( '', *, *, #57, .F. );
#301 = ORIENTED_EDGE( '', *, *, #97, .F. );
#302 = ORIENTED_EDGE( '', *, *, #55, .T. );
#303 = CARTESIAN_POINT( '', ( 0.000000000000000, 0.000000000000000, 0.000000000000000 ) );
#304 = DIRECTION( '', ( -1.00000000000000, -0.000000000000000, -0.000000000000000 ) );
#305 = DIRECTION( '', ( 0.000000000000000, 0.000000000000000, -1.00000000000000 ) );
#306 = CARTESIAN_POINT( '', ( 0.000000000000000, 0.000000000000000, 0.000000000000000 ) );
#307 = DIRECTION( '', ( 1.00000000000000, -0.000000000000000, 0.000000000000000 ) );
#308 = DIRECTION( '', ( 0.000000000000000, 0.000000000000000, -1.00000000000000 ) );
#309 = CARTESIAN_POINT( '', ( 5000.00000000000, 0.000000000000000, 0.000000000000000 ) );
#310 = DIRECTION( '', ( -1.00000000000000, 0.000000000000000, 0.000000000000000 ) );
#311 = DIRECTION( '', ( 0.000000000000000, 0.000000000000000, -1.00000000000000 ) );
#312 = SURFACE_STYLE_FILL_AREA( #347 );
#313 = ORIENTED_EDGE( '', *, *, #59, .T. );
#314 = ORIENTED_EDGE( '', *, *, #83, .T. );
#315 = ORIENTED_EDGE( '', *, *, #69, .T. );
#316 = ORIENTED_EDGE( '', *, *, #99, .T. );
#317 = CARTESIAN_POINT( '', ( 0.000000000000000, 0.000000000000000, 0.000000000000000 ) );
#318 = DIRECTION( '', ( -1.00000000000000, -0.000000000000000, -0.000000000000000 ) );
#319 = DIRECTION( '', ( 0.000000000000000, 0.000000000000000, -1.00000000000000 ) );
#320 = CARTESIAN_POINT( '', ( 5000.00000000000, 0.000000000000000, 0.000000000000000 ) );
#321 = DIRECTION( '', ( -1.00000000000000, 0.000000000000000, 0.000000000000000 ) );
#322 = DIRECTION( '', ( 0.000000000000000, 0.000000000000000, -1.00000000000000 ) );
#323 = DIRECTION( '', ( -1.00000000000000, 0.000000000000000, 0.000000000000000 ) );
#324 = CARTESIAN_POINT( '', ( 0.000000000000000, 0.000000000000000, 0.000000000000000 ) );
#325 = DIRECTION( '', ( 1.00000000000000, -0.000000000000000, 0.000000000000000 ) );
#326 = DIRECTION( '', ( 0.000000000000000, 0.000000000000000, -1.00000000000000 ) );
#327 = SURFACE_STYLE_FILL_AREA( #348 );
#328 = ORIENTED_EDGE( '', *, *, #83, .F. );
#329 = ORIENTED_EDGE( '', *, *, #93, .F. );
#330 = ORIENTED_EDGE( '', *, *, #77, .F. );
#331 = ORIENTED_EDGE( '', *, *, #55, .F. );
#332 = CARTESIAN_POINT( '', ( 5000.00000000000, 0.000000000000000, 0.000000000000000 ) );
#333 = DIRECTION( '', ( 1.00000000000000, 0.000000000000000, 0.000000000000000 ) );
#334 = DIRECTION( '', ( 0.000000000000000, 0.000000000000000, -1.00000000000000 ) );
#335 = SURFACE_STYLE_FILL_AREA( #349 );
#336 = ORIENTED_EDGE( '', *, *, #59, .F. );
#337 = ORIENTED_EDGE( '', *, *, #81, .T. );
#338 = ORIENTED_EDGE( '', *, *, #69, .F. );
#339 = ORIENTED_EDGE( '', *, *, #93, .T. );
#340 = CARTESIAN_POINT( '', ( 0.000000000000000, 0.000000000000000, 0.000000000000000 ) );
#341 = DIRECTION( '', ( -1.00000000000000, -0.000000000000000, -0.000000000000000 ) );
#342 = DIRECTION( '', ( 0.000000000000000, 0.000000000000000, -1.00000000000000 ) );
#343 = FILL_AREA_STYLE( '', ( #350 ) );
#344 = FILL_AREA_STYLE( '', ( #351 ) );
#345 = FILL_AREA_STYLE( '', ( #352 ) );
#346 = FILL_AREA_STYLE( '', ( #353 ) );
#347 = FILL_AREA_STYLE( '', ( #354 ) );
#348 = FILL_AREA_STYLE( '', ( #355 ) );
#349 = FILL_AREA_STYLE( '', ( #356 ) );
#350 = FILL_AREA_STYLE_COLOUR( '', #357 );
#351 = FILL_AREA_STYLE_COLOUR( '', #358 );
#352 = FILL_AREA_STYLE_COLOUR( '', #359 );
#353 = FILL_AREA_STYLE_COLOUR( '', #360 );
#354 = FILL_AREA_STYLE_COLOUR( '', #361 );
#355 = FILL_AREA_STYLE_COLOUR( '', #362 );
#356 = FILL_AREA_STYLE_COLOUR( '', #363 );
#357 = COLOUR_RGB( '', 0.689999997615810, 0.689999997615810, 0.689999997615810 );
#358 = COLOUR_RGB( '', 0.689999997615810, 0.689999997615810, 0.689999997615810 );
#359 = COLOUR_RGB( '', 0.689999997615810, 0.689999997615810, 0.689999997615810 );
#360 = COLOUR_RGB( '', 0.689999997615810, 0.689999997615810, 0.689999997615810 );
#361 = COLOUR_RGB( '', 0.689999997615810, 0.689999997615810, 0.689999997615810 );
#362 = COLOUR_RGB( '', 0.689999997615810, 0.689999997615810, 0.689999997615810 );
#363 = COLOUR_RGB( '', 0.689999997615810, 0.689999997615810, 0.689999997615810 );
ENDSEC;
END-ISO-10303-21;
