ISO-10303-21;
HEADER;
/* Generated by software containing ST-Developer
 * from STEP Tools, Inc. (www.steptools.com) 
 */

FILE_DESCRIPTION(
/* description */ (''),
/* implementation_level */ '2;1');

FILE_NAME(
/* name */ 
'Q:\\Ric010\\FF7\\FIPlastiCAD\\FIP\\Lavoro\\PVC Fittings\\PVC Fittings
 STEP\\TRIV\\TRIV075032.ipt.stp',
/* time_stamp */ '2013-10-01T14:56:34+02:00',
/* author */ ('bfaro'),
/* organization */ (''),
/* preprocessor_version */ 'ST-DEVELOPER v15.2',
/* originating_system */ 'Autodesk Inventor 2014',
/* authorisation */ '');

FILE_SCHEMA (('AUTOMOTIVE_DESIGN { 1 0 10303 214 3 1 1 }'));
ENDSEC;

DATA;
#10=SHAPE_REPRESENTATION_RELATIONSHIP('SRR','None',#435,#11);
#11=ADVANCED_BREP_SHAPE_REPRESENTATION($,(#181),#426);
#12=STYLED_ITEM($,(#443),#181);
#13=PLANE($,#202);
#14=PLANE($,#203);
#15=PLANE($,#204);
#16=PLANE($,#205);
#17=PLANE($,#206);
#18=PLANE($,#207);
#19=FACE_BOUND($,#53,.T.);
#20=FACE_BOUND($,#55,.T.);
#21=FACE_BOUND($,#56,.T.);
#22=FACE_BOUND($,#58,.T.);
#23=FACE_BOUND($,#59,.T.);
#24=FACE_BOUND($,#61,.T.);
#25=FACE_BOUND($,#63,.T.);
#26=FACE_BOUND($,#65,.T.);
#27=FACE_BOUND($,#67,.T.);
#28=FACE_BOUND($,#69,.T.);
#29=FACE_BOUND($,#70,.T.);
#30=FACE_BOUND($,#71,.T.);
#31=FACE_BOUND($,#73,.T.);
#32=FACE_BOUND($,#75,.T.);
#33=FACE_BOUND($,#76,.T.);
#34=FACE_BOUND($,#77,.T.);
#35=FACE_BOUND($,#78,.T.);
#36=FACE_BOUND($,#79,.T.);
#37=B_SPLINE_CURVE_WITH_KNOTS($,3,(#265,#266,#267,#268,#269,#270,#271,#272,
#273,#274,#275,#276,#277,#278,#279,#280,#281,#282,#283,#284,#285,#286,#287,
#288,#289,#290,#291,#292,#293,#294,#295,#296,#297,#298,#299,#300,#301,#302,
#303,#304,#305,#306,#307,#308,#309,#310,#311,#312,#313,#314),
 .UNSPECIFIED.,.T.,.F.,(4,2,2,2,2,2,2,2,2,2,2,2,2,2,2,2,2,2,2,2,2,2,2,2,
4),(0.,0.296547377892276,0.593094755784551,1.1861895115691,1.77840414900365,
2.07451146772093,2.37061878643821,2.66672610515548,2.96283342387276,3.55504806130731,
4.14814281709186,4.44469019498414,4.74123757287641,5.03778495076473,5.33433232865306,
5.92742708442971,6.5196417218619,6.81574904057799,7.11185635929409,7.40796367801019,
7.70407099672628,8.29628563415847,8.88938038993512,9.18592776782345,9.48247514571177),
 .UNSPECIFIED.);
#38=B_SPLINE_CURVE_WITH_KNOTS($,3,(#327,#328,#329,#330,#331,#332,#333,#334,
#335,#336,#337,#338,#339,#340,#341,#342,#343,#344),.UNSPECIFIED.,.F.,.F.,
(4,2,2,2,2,2,2,2,4),(6.27740892387168,6.67008180565441,7.06275468743715,
7.45542756921989,7.84810045100262,8.24010368469683,8.63210691839105,9.02411015208526,
9.41611338577947),.UNSPECIFIED.);
#39=B_SPLINE_CURVE_WITH_KNOTS($,3,(#346,#347,#348,#349,#350,#351,#352,#353,
#354,#355,#356,#357,#358,#359,#360,#361,#362,#363),.UNSPECIFIED.,.F.,.F.,
(4,2,2,2,2,2,2,2,4),(-6.27740892387168,-5.88473604208573,-5.49206316029978,
-5.09939027851383,-4.70671739672788,-4.31471416302987,-3.92271092933187,
-3.53070769563386,-3.13870446193585),.UNSPECIFIED.);
#40=B_SPLINE_CURVE_WITH_KNOTS($,3,(#365,#366,#367,#368,#369,#370,#371,#372,
#373,#374,#375,#376,#377,#378,#379,#380,#381,#382),.UNSPECIFIED.,.F.,.F.,
(4,2,2,2,2,2,2,2,4),(9.41611338575137,9.80811661944938,10.2001198531474,
10.5921230868454,10.9841263205434,11.3767992023294,11.7694720841153,12.1621449659013,
12.5548178476872),.UNSPECIFIED.);
#41=B_SPLINE_CURVE_WITH_KNOTS($,3,(#383,#384,#385,#386,#387,#388,#389,#390,
#391,#392,#393,#394,#395,#396,#397,#398,#399,#400),.UNSPECIFIED.,.F.,.F.,
(4,2,2,2,2,2,2,2,4),(-3.13870446190776,-2.74670122821355,-2.35469799451934,
-1.96269476082513,-1.57069152713091,-1.17801864534818,-0.785345763565443,
-0.392672881782707,2.8421709430404E-014),.UNSPECIFIED.);
#42=FACE_OUTER_BOUND($,#52,.T.);
#43=FACE_OUTER_BOUND($,#54,.T.);
#44=FACE_OUTER_BOUND($,#57,.T.);
#45=FACE_OUTER_BOUND($,#60,.T.);
#46=FACE_OUTER_BOUND($,#62,.T.);
#47=FACE_OUTER_BOUND($,#64,.T.);
#48=FACE_OUTER_BOUND($,#66,.T.);
#49=FACE_OUTER_BOUND($,#68,.T.);
#50=FACE_OUTER_BOUND($,#72,.T.);
#51=FACE_OUTER_BOUND($,#74,.T.);
#52=EDGE_LOOP($,(#126));
#53=EDGE_LOOP($,(#127));
#54=EDGE_LOOP($,(#128));
#55=EDGE_LOOP($,(#129));
#56=EDGE_LOOP($,(#130));
#57=EDGE_LOOP($,(#131));
#58=EDGE_LOOP($,(#132));
#59=EDGE_LOOP($,(#133,#134,#135,#136));
#60=EDGE_LOOP($,(#137));
#61=EDGE_LOOP($,(#138));
#62=EDGE_LOOP($,(#139,#140,#141,#142));
#63=EDGE_LOOP($,(#143));
#64=EDGE_LOOP($,(#144));
#65=EDGE_LOOP($,(#145));
#66=EDGE_LOOP($,(#146));
#67=EDGE_LOOP($,(#147));
#68=EDGE_LOOP($,(#148));
#69=EDGE_LOOP($,(#149));
#70=EDGE_LOOP($,(#150));
#71=EDGE_LOOP($,(#151));
#72=EDGE_LOOP($,(#152));
#73=EDGE_LOOP($,(#153));
#74=EDGE_LOOP($,(#154));
#75=EDGE_LOOP($,(#155));
#76=EDGE_LOOP($,(#156));
#77=EDGE_LOOP($,(#157));
#78=EDGE_LOOP($,(#158));
#79=EDGE_LOOP($,(#159));
#80=CIRCLE($,#184,15.5);
#81=CIRCLE($,#186,35.5);
#82=CIRCLE($,#187,35.5);
#83=CIRCLE($,#189,45.5);
#84=CIRCLE($,#190,45.5);
#85=CIRCLE($,#192,37.5);
#86=CIRCLE($,#193,37.5);
#87=CIRCLE($,#195,20.5);
#88=CIRCLE($,#197,37.5);
#89=CIRCLE($,#198,37.5);
#90=CIRCLE($,#200,16.);
#91=CIRCLE($,#201,16.);
#92=VERTEX_POINT($,#262);
#93=VERTEX_POINT($,#264);
#94=VERTEX_POINT($,#316);
#95=VERTEX_POINT($,#318);
#96=VERTEX_POINT($,#321);
#97=VERTEX_POINT($,#323);
#98=VERTEX_POINT($,#325);
#99=VERTEX_POINT($,#326);
#100=VERTEX_POINT($,#345);
#101=VERTEX_POINT($,#364);
#102=VERTEX_POINT($,#402);
#103=VERTEX_POINT($,#404);
#104=VERTEX_POINT($,#407);
#105=VERTEX_POINT($,#410);
#106=VERTEX_POINT($,#412);
#107=VERTEX_POINT($,#415);
#108=VERTEX_POINT($,#417);
#109=EDGE_CURVE($,#92,#92,#80,.T.);
#110=EDGE_CURVE($,#93,#93,#37,.T.);
#111=EDGE_CURVE($,#94,#94,#81,.T.);
#112=EDGE_CURVE($,#95,#95,#82,.T.);
#113=EDGE_CURVE($,#96,#96,#83,.T.);
#114=EDGE_CURVE($,#97,#97,#84,.T.);
#115=EDGE_CURVE($,#98,#99,#38,.T.);
#116=EDGE_CURVE($,#98,#100,#39,.T.);
#117=EDGE_CURVE($,#100,#101,#40,.T.);
#118=EDGE_CURVE($,#99,#101,#41,.T.);
#119=EDGE_CURVE($,#102,#102,#85,.T.);
#120=EDGE_CURVE($,#103,#103,#86,.T.);
#121=EDGE_CURVE($,#104,#104,#87,.T.);
#122=EDGE_CURVE($,#105,#105,#88,.T.);
#123=EDGE_CURVE($,#106,#106,#89,.T.);
#124=EDGE_CURVE($,#107,#107,#90,.T.);
#125=EDGE_CURVE($,#108,#108,#91,.T.);
#126=ORIENTED_EDGE($,*,*,#109,.F.);
#127=ORIENTED_EDGE($,*,*,#110,.F.);
#128=ORIENTED_EDGE($,*,*,#111,.F.);
#129=ORIENTED_EDGE($,*,*,#112,.F.);
#130=ORIENTED_EDGE($,*,*,#110,.T.);
#131=ORIENTED_EDGE($,*,*,#113,.F.);
#132=ORIENTED_EDGE($,*,*,#114,.T.);
#133=ORIENTED_EDGE($,*,*,#115,.F.);
#134=ORIENTED_EDGE($,*,*,#116,.T.);
#135=ORIENTED_EDGE($,*,*,#117,.T.);
#136=ORIENTED_EDGE($,*,*,#118,.F.);
#137=ORIENTED_EDGE($,*,*,#119,.T.);
#138=ORIENTED_EDGE($,*,*,#120,.F.);
#139=ORIENTED_EDGE($,*,*,#116,.F.);
#140=ORIENTED_EDGE($,*,*,#115,.T.);
#141=ORIENTED_EDGE($,*,*,#118,.T.);
#142=ORIENTED_EDGE($,*,*,#117,.F.);
#143=ORIENTED_EDGE($,*,*,#121,.F.);
#144=ORIENTED_EDGE($,*,*,#122,.T.);
#145=ORIENTED_EDGE($,*,*,#123,.F.);
#146=ORIENTED_EDGE($,*,*,#124,.T.);
#147=ORIENTED_EDGE($,*,*,#125,.F.);
#148=ORIENTED_EDGE($,*,*,#114,.F.);
#149=ORIENTED_EDGE($,*,*,#120,.T.);
#150=ORIENTED_EDGE($,*,*,#112,.T.);
#151=ORIENTED_EDGE($,*,*,#119,.F.);
#152=ORIENTED_EDGE($,*,*,#113,.T.);
#153=ORIENTED_EDGE($,*,*,#122,.F.);
#154=ORIENTED_EDGE($,*,*,#121,.T.);
#155=ORIENTED_EDGE($,*,*,#124,.F.);
#156=ORIENTED_EDGE($,*,*,#111,.T.);
#157=ORIENTED_EDGE($,*,*,#123,.T.);
#158=ORIENTED_EDGE($,*,*,#109,.T.);
#159=ORIENTED_EDGE($,*,*,#125,.T.);
#160=CYLINDRICAL_SURFACE($,#183,15.5);
#161=CYLINDRICAL_SURFACE($,#185,35.5);
#162=CYLINDRICAL_SURFACE($,#188,45.5);
#163=CYLINDRICAL_SURFACE($,#191,37.5);
#164=CYLINDRICAL_SURFACE($,#194,20.5);
#165=CYLINDRICAL_SURFACE($,#196,37.5);
#166=CYLINDRICAL_SURFACE($,#199,16.);
#167=ADVANCED_FACE($,(#42,#19),#160,.F.);
#168=ADVANCED_FACE($,(#43,#20,#21),#161,.F.);
#169=ADVANCED_FACE($,(#44,#22,#23),#162,.T.);
#170=ADVANCED_FACE($,(#45,#24),#163,.F.);
#171=ADVANCED_FACE($,(#46,#25),#164,.T.);
#172=ADVANCED_FACE($,(#47,#26),#165,.F.);
#173=ADVANCED_FACE($,(#48,#27),#166,.F.);
#174=ADVANCED_FACE($,(#49,#28),#13,.T.);
#175=ADVANCED_FACE($,(#29,#30),#14,.T.);
#176=ADVANCED_FACE($,(#50,#31),#15,.T.);
#177=ADVANCED_FACE($,(#51,#32),#16,.T.);
#178=ADVANCED_FACE($,(#33,#34),#17,.T.);
#179=ADVANCED_FACE($,(#35,#36),#18,.T.);
#180=CLOSED_SHELL($,(#167,#168,#169,#170,#171,#172,#173,#174,#175,#176,
#177,#178,#179));
#181=MANIFOLD_SOLID_BREP('Solido1',#180);
#182=AXIS2_PLACEMENT_3D('placement',#260,#208,#209);
#183=AXIS2_PLACEMENT_3D($,#261,#210,#211);
#184=AXIS2_PLACEMENT_3D($,#263,#212,#213);
#185=AXIS2_PLACEMENT_3D($,#315,#214,#215);
#186=AXIS2_PLACEMENT_3D($,#317,#216,#217);
#187=AXIS2_PLACEMENT_3D($,#319,#218,#219);
#188=AXIS2_PLACEMENT_3D($,#320,#220,#221);
#189=AXIS2_PLACEMENT_3D($,#322,#222,#223);
#190=AXIS2_PLACEMENT_3D($,#324,#224,#225);
#191=AXIS2_PLACEMENT_3D($,#401,#226,#227);
#192=AXIS2_PLACEMENT_3D($,#403,#228,#229);
#193=AXIS2_PLACEMENT_3D($,#405,#230,#231);
#194=AXIS2_PLACEMENT_3D($,#406,#232,#233);
#195=AXIS2_PLACEMENT_3D($,#408,#234,#235);
#196=AXIS2_PLACEMENT_3D($,#409,#236,#237);
#197=AXIS2_PLACEMENT_3D($,#411,#238,#239);
#198=AXIS2_PLACEMENT_3D($,#413,#240,#241);
#199=AXIS2_PLACEMENT_3D($,#414,#242,#243);
#200=AXIS2_PLACEMENT_3D($,#416,#244,#245);
#201=AXIS2_PLACEMENT_3D($,#418,#246,#247);
#202=AXIS2_PLACEMENT_3D($,#419,#248,#249);
#203=AXIS2_PLACEMENT_3D($,#420,#250,#251);
#204=AXIS2_PLACEMENT_3D($,#421,#252,#253);
#205=AXIS2_PLACEMENT_3D($,#422,#254,#255);
#206=AXIS2_PLACEMENT_3D($,#423,#256,#257);
#207=AXIS2_PLACEMENT_3D($,#424,#258,#259);
#208=DIRECTION('axis',(0.,0.,1.));
#209=DIRECTION('refdir',(1.,0.,0.));
#210=DIRECTION('center_axis',(-1.,0.,-4.48966053824142E-011));
#211=DIRECTION('ref_axis',(-4.48966053824142E-011,0.,1.));
#212=DIRECTION('center_axis',(-1.,0.,-4.489664E-011));
#213=DIRECTION('ref_axis',(-4.48966053824142E-011,0.,1.));
#214=DIRECTION('center_axis',(0.,0.,-1.));
#215=DIRECTION('ref_axis',(-1.,0.,0.));
#216=DIRECTION('center_axis',(0.,0.,-1.));
#217=DIRECTION('ref_axis',(-1.,0.,0.));
#218=DIRECTION('center_axis',(0.,0.,1.));
#219=DIRECTION('ref_axis',(-1.,0.,0.));
#220=DIRECTION('center_axis',(0.,0.,1.));
#221=DIRECTION('ref_axis',(1.,0.,0.));
#222=DIRECTION('center_axis',(0.,0.,1.));
#223=DIRECTION('ref_axis',(1.,0.,0.));
#224=DIRECTION('center_axis',(0.,0.,1.));
#225=DIRECTION('ref_axis',(1.,0.,0.));
#226=DIRECTION('center_axis',(0.,0.,1.));
#227=DIRECTION('ref_axis',(1.,0.,0.));
#228=DIRECTION('center_axis',(0.,0.,1.));
#229=DIRECTION('ref_axis',(1.,0.,0.));
#230=DIRECTION('center_axis',(0.,0.,1.));
#231=DIRECTION('ref_axis',(1.,0.,0.));
#232=DIRECTION('center_axis',(1.,0.,4.489664E-011));
#233=DIRECTION('ref_axis',(4.489664E-011,0.,-1.));
#234=DIRECTION('center_axis',(1.,0.,4.489664E-011));
#235=DIRECTION('ref_axis',(4.489664E-011,0.,-1.));
#236=DIRECTION('center_axis',(0.,0.,1.));
#237=DIRECTION('ref_axis',(1.,0.,0.));
#238=DIRECTION('center_axis',(0.,0.,1.));
#239=DIRECTION('ref_axis',(1.,0.,0.));
#240=DIRECTION('center_axis',(0.,0.,1.));
#241=DIRECTION('ref_axis',(1.,0.,0.));
#242=DIRECTION('center_axis',(1.,1.51659706656222E-014,4.48969052936151E-011));
#243=DIRECTION('ref_axis',(4.48968640043289E-011,0.,-1.));
#244=DIRECTION('center_axis',(1.,0.,4.489664E-011));
#245=DIRECTION('ref_axis',(4.489664E-011,0.,-1.));
#246=DIRECTION('center_axis',(1.,0.,4.489664E-011));
#247=DIRECTION('ref_axis',(4.489664E-011,0.,-1.));
#248=DIRECTION('center_axis',(0.,0.,-1.));
#249=DIRECTION('ref_axis',(-1.,0.,0.));
#250=DIRECTION('center_axis',(0.,0.,-1.));
#251=DIRECTION('ref_axis',(-1.,0.,0.));
#252=DIRECTION('center_axis',(0.,0.,1.));
#253=DIRECTION('ref_axis',(1.,0.,0.));
#254=DIRECTION('center_axis',(1.,0.,4.489664E-011));
#255=DIRECTION('ref_axis',(4.48963533017377E-011,0.,-1.));
#256=DIRECTION('center_axis',(0.,0.,1.));
#257=DIRECTION('ref_axis',(1.,0.,0.));
#258=DIRECTION('center_axis',(1.,0.,4.489664E-011));
#259=DIRECTION('ref_axis',(4.48963533017377E-011,0.,-1.));
#260=CARTESIAN_POINT('',(0.,0.,0.));
#261=CARTESIAN_POINT('Origin',(40.,0.,84.000000001796));
#262=CARTESIAN_POINT('',(40.0000000006959,1.8982025386784E-015,68.500000001796));
#263=CARTESIAN_POINT('Origin',(40.,0.,84.000000001796));
#264=CARTESIAN_POINT('',(31.9374388453426,15.5,84.000000001434));
#265=CARTESIAN_POINT('Ctrl Pts',(31.9374388453426,15.5,84.000000001434));
#266=CARTESIAN_POINT('Ctrl Pts',(31.9374388453426,15.5,84.9884912610749));
#267=CARTESIAN_POINT('Ctrl Pts',(31.984645957935,15.4039334228256,86.0056139868494));
#268=CARTESIAN_POINT('Ctrl Pts',(32.1737596426319,15.004930265138,88.0194179003328));
#269=CARTESIAN_POINT('Ctrl Pts',(32.3154092057828,14.7021353273684,89.0161512766394));
#270=CARTESIAN_POINT('Ctrl Pts',(32.8401704647275,13.5102528481571,91.8728272333788));
#271=CARTESIAN_POINT('Ctrl Pts',(33.323474708667,12.3226645365558,93.5976456817234));
#272=CARTESIAN_POINT('Ctrl Pts',(34.2073431430819,9.5996675654961,96.3206426528228));
#273=CARTESIAN_POINT('Ctrl Pts',(34.6696791470405,7.87411076361976,97.5097484133626));
#274=CARTESIAN_POINT('Ctrl Pts',(35.1572519618703,5.01519719730021,98.7025178496933));
#275=CARTESIAN_POINT('Ctrl Pts',(35.2863909801332,4.01772041791447,99.0053924565994));
#276=CARTESIAN_POINT('Ctrl Pts',(35.4578178779822,2.0036509407836,99.4041962804066));
#277=CARTESIAN_POINT('Ctrl Pts',(35.5,0.987024395724253,99.500000001594));
#278=CARTESIAN_POINT('Ctrl Pts',(35.5,-0.987024395724253,99.500000001594));
#279=CARTESIAN_POINT('Ctrl Pts',(35.4578178779822,-2.0036509407836,99.4041962804066));
#280=CARTESIAN_POINT('Ctrl Pts',(35.2863909801332,-4.01772041791447,99.0053924565994));
#281=CARTESIAN_POINT('Ctrl Pts',(35.1572519618703,-5.01519719730021,98.7025178496933));
#282=CARTESIAN_POINT('Ctrl Pts',(34.6696791470405,-7.87411076361976,97.5097484133626));
#283=CARTESIAN_POINT('Ctrl Pts',(34.2073431430819,-9.5996675654961,96.3206426528228));
#284=CARTESIAN_POINT('Ctrl Pts',(33.323474708667,-12.3226645365558,93.5976456817234));
#285=CARTESIAN_POINT('Ctrl Pts',(32.8401704647275,-13.5102528481571,91.8728272333788));
#286=CARTESIAN_POINT('Ctrl Pts',(32.3154092057828,-14.7021353273684,89.0161512766394));
#287=CARTESIAN_POINT('Ctrl Pts',(32.1737596426319,-15.004930265138,88.0194179003328));
#288=CARTESIAN_POINT('Ctrl Pts',(31.984645957935,-15.4039334228256,86.0056139868494));
#289=CARTESIAN_POINT('Ctrl Pts',(31.9374388453426,-15.5,84.9884912610749));
#290=CARTESIAN_POINT('Ctrl Pts',(31.9374388453426,-15.5,83.0115087418063));
#291=CARTESIAN_POINT('Ctrl Pts',(31.9846459579338,-15.4039334228281,81.9943860160448));
#292=CARTESIAN_POINT('Ctrl Pts',(32.173759642628,-15.0049302651462,79.9805821025885));
#293=CARTESIAN_POINT('Ctrl Pts',(32.3154092057776,-14.7021353273798,78.9838487262961));
#294=CARTESIAN_POINT('Ctrl Pts',(32.8401704647195,-13.510252848176,76.1271727696031));
#295=CARTESIAN_POINT('Ctrl Pts',(33.3234747086595,-12.3226645365756,74.4023543212944));
#296=CARTESIAN_POINT('Ctrl Pts',(34.2073431430793,-9.59966756550733,71.6793573502549));
#297=CARTESIAN_POINT('Ctrl Pts',(34.6696791470407,-7.8741107636202,70.4902515897503));
#298=CARTESIAN_POINT('Ctrl Pts',(35.1572519618713,-5.01519719729329,69.2974821534613));
#299=CARTESIAN_POINT('Ctrl Pts',(35.2863909801341,-4.01772041790661,68.9946075465673));
#300=CARTESIAN_POINT('Ctrl Pts',(35.4578178779825,-2.00365094077723,68.5958037227768));
#301=CARTESIAN_POINT('Ctrl Pts',(35.5,-0.98702439572032,68.500000001594));
#302=CARTESIAN_POINT('Ctrl Pts',(35.5,0.987024395720316,68.500000001594));
#303=CARTESIAN_POINT('Ctrl Pts',(35.4578178779825,2.00365094077723,68.5958037227768));
#304=CARTESIAN_POINT('Ctrl Pts',(35.2863909801341,4.0177204179066,68.9946075465673));
#305=CARTESIAN_POINT('Ctrl Pts',(35.1572519618713,5.01519719729328,69.2974821534613));
#306=CARTESIAN_POINT('Ctrl Pts',(34.6696791470407,7.8741107636202,70.4902515897503));
#307=CARTESIAN_POINT('Ctrl Pts',(34.2073431430793,9.59966756550733,71.6793573502549));
#308=CARTESIAN_POINT('Ctrl Pts',(33.3234747086595,12.3226645365756,74.4023543212944));
#309=CARTESIAN_POINT('Ctrl Pts',(32.8401704647195,13.510252848176,76.1271727696031));
#310=CARTESIAN_POINT('Ctrl Pts',(32.3154092057776,14.7021353273798,78.9838487262961));
#311=CARTESIAN_POINT('Ctrl Pts',(32.173759642628,15.0049302651462,79.9805821025885));
#312=CARTESIAN_POINT('Ctrl Pts',(31.9846459579338,15.4039334228281,81.9943860160448));
#313=CARTESIAN_POINT('Ctrl Pts',(31.9374388453426,15.5,83.0115087418063));
#314=CARTESIAN_POINT('Ctrl Pts',(31.9374388453426,15.5,84.000000001434));
#315=CARTESIAN_POINT('Origin',(0.,0.,124.));
#316=CARTESIAN_POINT('',(35.5,4.3474961369731E-015,124.));
#317=CARTESIAN_POINT('Origin',(0.,0.,124.));
#318=CARTESIAN_POINT('',(35.5,4.3474961369731E-015,44.));
#319=CARTESIAN_POINT('Origin',(0.,0.,44.));
#320=CARTESIAN_POINT('Origin',(0.,0.,0.));
#321=CARTESIAN_POINT('',(-45.5,-5.571959E-015,168.));
#322=CARTESIAN_POINT('Origin',(0.,0.,168.));
#323=CARTESIAN_POINT('',(45.5,-1.114392E-014,0.));
#324=CARTESIAN_POINT('Origin',(0.,0.,0.));
#325=CARTESIAN_POINT('',(40.62019202318,-20.5,84.000000001824));
#326=CARTESIAN_POINT('',(45.5,-8.082402E-015,63.500000002043));
#327=CARTESIAN_POINT('Ctrl Pts',(40.6201920231798,-20.5,84.0000000018237));
#328=CARTESIAN_POINT('Ctrl Pts',(40.6201920231798,-20.5,82.6910903958813));
#329=CARTESIAN_POINT('Ctrl Pts',(40.685279425452,-20.3726474967181,81.3448391704142));
#330=CARTESIAN_POINT('Ctrl Pts',(40.9455810403794,-19.8442969372885,78.6803642595427));
#331=CARTESIAN_POINT('Ctrl Pts',(41.1404256298646,-19.4434924155502,77.3620661044499));
#332=CARTESIAN_POINT('Ctrl Pts',(41.6209961465178,-18.3922983856776,74.843854804668));
#333=CARTESIAN_POINT('Ctrl Pts',(41.9065171103693,-17.7410747582586,73.6415818114322));
#334=CARTESIAN_POINT('Ctrl Pts',(42.5095749365565,-16.2430892527178,71.4220584882754));
#335=CARTESIAN_POINT('Ctrl Pts',(42.8265228448492,-15.3961475628945,70.4047695361651));
#336=CARTESIAN_POINT('Ctrl Pts',(43.4312939700559,-13.5967660704526,68.6053880437578));
#337=CARTESIAN_POINT('Ctrl Pts',(43.7413246860042,-12.5802256780133,67.7586531994926));
#338=CARTESIAN_POINT('Ctrl Pts',(44.3196189487158,-10.3603542223004,66.2600314409068));
#339=CARTESIAN_POINT('Ctrl Pts',(44.5874113659084,-9.15697941620228,65.6080275599869));
#340=CARTESIAN_POINT('Ctrl Pts',(45.0315928538796,-6.63650286775336,64.555932517184));
#341=CARTESIAN_POINT('Ctrl Pts',(45.2080512505261,-5.31706992278237,64.1550035034529));
#342=CARTESIAN_POINT('Ctrl Pts',(45.4423268558404,-2.65218030373169,63.6269526542635));
#343=CARTESIAN_POINT('Ctrl Pts',(45.5,-1.30667744564736,63.5000000020428));
#344=CARTESIAN_POINT('Ctrl Pts',(45.5,-2.77555756156289E-016,63.5000000020428));
#345=CARTESIAN_POINT('',(45.5,-1.114392E-014,104.50000000204));
#346=CARTESIAN_POINT('Ctrl Pts',(40.6201920231798,-20.5,84.0000000018237));
#347=CARTESIAN_POINT('Ctrl Pts',(40.6201920231798,-20.5,85.3089096077769));
#348=CARTESIAN_POINT('Ctrl Pts',(40.685279425453,-20.3726474967161,86.6551608332545));
#349=CARTESIAN_POINT('Ctrl Pts',(40.9455810403814,-19.8442969372843,89.3196357441499));
#350=CARTESIAN_POINT('Ctrl Pts',(41.1404256298667,-19.4434924155457,90.637933899256));
#351=CARTESIAN_POINT('Ctrl Pts',(41.620996146518,-18.3922983856769,93.1561451990697));
#352=CARTESIAN_POINT('Ctrl Pts',(41.9065171103678,-17.7410747582621,94.3584181923236));
#353=CARTESIAN_POINT('Ctrl Pts',(42.5095749365506,-16.2430892527329,96.5779415155212));
#354=CARTESIAN_POINT('Ctrl Pts',(42.8265228448409,-15.3961475629172,97.5952304676541));
#355=CARTESIAN_POINT('Ctrl Pts',(43.4312939700445,-13.5967660704886,99.3946119601098));
#356=CARTESIAN_POINT('Ctrl Pts',(43.7413246859923,-12.5802256780542,100.241346804403));
#357=CARTESIAN_POINT('Ctrl Pts',(44.3196189487048,-10.3603542223471,101.739968563045));
#358=CARTESIAN_POINT('Ctrl Pts',(44.5874113658987,-9.15697941624977,102.391972443993));
#359=CARTESIAN_POINT('Ctrl Pts',(45.0315928538732,-6.63650286779688,103.444067486845));
#360=CARTESIAN_POINT('Ctrl Pts',(45.2080512505218,-5.317069922821,103.844996500597));
#361=CARTESIAN_POINT('Ctrl Pts',(45.4423268558393,-2.6521803037549,104.373047349814));
#362=CARTESIAN_POINT('Ctrl Pts',(45.5,-1.30667744566004,104.500000002043));
#363=CARTESIAN_POINT('Ctrl Pts',(45.5,-2.22044604925031E-015,104.500000002043));
#364=CARTESIAN_POINT('',(40.62019202318,20.5,84.000000001824));
#365=CARTESIAN_POINT('Ctrl Pts',(45.5,2.91433543964104E-015,104.500000002043));
#366=CARTESIAN_POINT('Ctrl Pts',(45.5,1.30667744566004,104.500000002043));
#367=CARTESIAN_POINT('Ctrl Pts',(45.4423268558393,2.6521803037549,104.373047349814));
#368=CARTESIAN_POINT('Ctrl Pts',(45.2080512505217,5.31706992282099,103.844996500597));
#369=CARTESIAN_POINT('Ctrl Pts',(45.0315928538732,6.63650286779688,103.444067486845));
#370=CARTESIAN_POINT('Ctrl Pts',(44.5874113658987,9.15697941624977,102.391972443993));
#371=CARTESIAN_POINT('Ctrl Pts',(44.3196189487048,10.3603542223471,101.739968563045));
#372=CARTESIAN_POINT('Ctrl Pts',(43.7413246859923,12.5802256780542,100.241346804403));
#373=CARTESIAN_POINT('Ctrl Pts',(43.4312939700446,13.5967660704886,99.3946119601098));
#374=CARTESIAN_POINT('Ctrl Pts',(42.8265228448409,15.3961475629172,97.5952304676541));
#375=CARTESIAN_POINT('Ctrl Pts',(42.5095749365506,16.2430892527329,96.5779415155212));
#376=CARTESIAN_POINT('Ctrl Pts',(41.9065171103678,17.7410747582621,94.3584181923236));
#377=CARTESIAN_POINT('Ctrl Pts',(41.620996146518,18.3922983856769,93.1561451990697));
#378=CARTESIAN_POINT('Ctrl Pts',(41.1404256298667,19.4434924155457,90.637933899256));
#379=CARTESIAN_POINT('Ctrl Pts',(40.9455810403814,19.8442969372842,89.3196357441499));
#380=CARTESIAN_POINT('Ctrl Pts',(40.685279425453,20.3726474967161,86.6551608332545));
#381=CARTESIAN_POINT('Ctrl Pts',(40.6201920231798,20.5,85.3089096077769));
#382=CARTESIAN_POINT('Ctrl Pts',(40.6201920231798,20.5,84.0000000018237));
#383=CARTESIAN_POINT('Ctrl Pts',(45.5,-5.68989300120393E-015,63.5000000020428));
#384=CARTESIAN_POINT('Ctrl Pts',(45.5,1.30667744564736,63.5000000020428));
#385=CARTESIAN_POINT('Ctrl Pts',(45.4423268558404,2.65218030373169,63.6269526542635));
#386=CARTESIAN_POINT('Ctrl Pts',(45.2080512505261,5.31706992278237,64.1550035034529));
#387=CARTESIAN_POINT('Ctrl Pts',(45.0315928538796,6.63650286775336,64.555932517184));
#388=CARTESIAN_POINT('Ctrl Pts',(44.5874113659084,9.15697941620229,65.6080275599869));
#389=CARTESIAN_POINT('Ctrl Pts',(44.3196189487158,10.3603542223004,66.2600314409068));
#390=CARTESIAN_POINT('Ctrl Pts',(43.7413246860042,12.5802256780133,67.7586531994926));
#391=CARTESIAN_POINT('Ctrl Pts',(43.4312939700559,13.5967660704526,68.6053880437578));
#392=CARTESIAN_POINT('Ctrl Pts',(42.8265228448492,15.3961475628945,70.4047695361651));
#393=CARTESIAN_POINT('Ctrl Pts',(42.5095749365565,16.2430892527178,71.4220584882754));
#394=CARTESIAN_POINT('Ctrl Pts',(41.9065171103693,17.7410747582586,73.6415818114322));
#395=CARTESIAN_POINT('Ctrl Pts',(41.6209961465178,18.3922983856776,74.843854804668));
#396=CARTESIAN_POINT('Ctrl Pts',(41.1404256298646,19.4434924155502,77.3620661044499));
#397=CARTESIAN_POINT('Ctrl Pts',(40.9455810403794,19.8442969372885,78.6803642595427));
#398=CARTESIAN_POINT('Ctrl Pts',(40.685279425452,20.3726474967181,81.3448391704142));
#399=CARTESIAN_POINT('Ctrl Pts',(40.6201920231798,20.5,82.6910903958813));
#400=CARTESIAN_POINT('Ctrl Pts',(40.6201920231798,20.5,84.0000000018237));
#401=CARTESIAN_POINT('Origin',(-8.88178419700125E-015,0.,22.));
#402=CARTESIAN_POINT('',(-37.5,-4.592274E-015,44.));
#403=CARTESIAN_POINT('Origin',(0.,0.,44.));
#404=CARTESIAN_POINT('',(-37.5,-4.592274E-015,0.));
#405=CARTESIAN_POINT('Origin',(0.,0.,0.));
#406=CARTESIAN_POINT('Origin',(0.,0.,84.));
#407=CARTESIAN_POINT('',(61.9999999990796,-2.510443E-015,104.500000002784));
#408=CARTESIAN_POINT('Origin',(62.,0.,84.000000002784));
#409=CARTESIAN_POINT('Origin',(-8.88178419700125E-015,0.,146.));
#410=CARTESIAN_POINT('',(-37.5,-4.592274E-015,168.));
#411=CARTESIAN_POINT('Origin',(0.,0.,168.));
#412=CARTESIAN_POINT('',(-37.5,-4.592274E-015,124.));
#413=CARTESIAN_POINT('Origin',(0.,0.,124.));
#414=CARTESIAN_POINT('Origin',(51.,0.,84.00000000229));
#415=CARTESIAN_POINT('',(61.9999999992817,-1.95937E-015,100.000000002784));
#416=CARTESIAN_POINT('Origin',(62.,0.,84.000000002784));
#417=CARTESIAN_POINT('',(39.9999999992817,-1.95937E-015,100.000000001796));
#418=CARTESIAN_POINT('Origin',(40.,0.,84.000000001796));
#419=CARTESIAN_POINT('Origin',(0.,0.,0.));
#420=CARTESIAN_POINT('Origin',(0.,0.,44.));
#421=CARTESIAN_POINT('Origin',(0.,0.,168.));
#422=CARTESIAN_POINT('Origin',(62.,0.,84.000000002784));
#423=CARTESIAN_POINT('Origin',(0.,0.,124.));
#424=CARTESIAN_POINT('Origin',(40.,0.,84.000000001796));
#425=UNCERTAINTY_MEASURE_WITH_UNIT(LENGTH_MEASURE(0.01),#427,
'DISTANCE_ACCURACY_VALUE',
'Maximum model space distance between geometric entities at asserted c
onnectivities');
#426=(
GEOMETRIC_REPRESENTATION_CONTEXT(3)
GLOBAL_UNCERTAINTY_ASSIGNED_CONTEXT((#425))
GLOBAL_UNIT_ASSIGNED_CONTEXT((#427,#430,#428))
REPRESENTATION_CONTEXT('','3D')
);
#427=(
LENGTH_UNIT()
NAMED_UNIT(*)
SI_UNIT(.MILLI.,.METRE.)
);
#428=(
NAMED_UNIT(*)
SI_UNIT($,.STERADIAN.)
SOLID_ANGLE_UNIT()
);
#429=DIMENSIONAL_EXPONENTS(0.,0.,0.,0.,0.,0.,0.);
#430=(
CONVERSION_BASED_UNIT('degree',#432)
NAMED_UNIT(#429)
PLANE_ANGLE_UNIT()
);
#431=(
NAMED_UNIT(*)
PLANE_ANGLE_UNIT()
SI_UNIT($,.RADIAN.)
);
#432=PLANE_ANGLE_MEASURE_WITH_UNIT(PLANE_ANGLE_MEASURE(0.01745329252),#431);
#433=SHAPE_DEFINITION_REPRESENTATION(#434,#435);
#434=PRODUCT_DEFINITION_SHAPE('',$,#437);
#435=SHAPE_REPRESENTATION('',(#182),#426);
#436=PRODUCT_DEFINITION_CONTEXT('3D Mechanical Parts',#440,'design');
#437=PRODUCT_DEFINITION('TRIV075032','TRIV075032',#438,#436);
#438=PRODUCT_DEFINITION_FORMATION('',$,#442);
#439=APPLICATION_PROTOCOL_DEFINITION('international standard',
'automotive_design',2009,#440);
#440=APPLICATION_CONTEXT(
'Core Data for Automotive Mechanical Design Process');
#441=PRODUCT_CONTEXT('3D Mechanical Parts',#440,'mechanical');
#442=PRODUCT('TRIV075032','TRIV075032',$,(#441));
#443=PRESENTATION_STYLE_ASSIGNMENT((#444));
#444=SURFACE_STYLE_USAGE(.BOTH.,#445);
#445=SURFACE_SIDE_STYLE($,(#446));
#446=SURFACE_STYLE_FILL_AREA(#447);
#447=FILL_AREA_STYLE($,(#448));
#448=FILL_AREA_STYLE_COLOUR($,#449);
#449=COLOUR_RGB('',0.509803921568627,0.509803921568627,0.588235294117647);
ENDSEC;
END-ISO-10303-21;
