ISO-10303-21;
HEADER;
/* Generated by software containing ST-Developer
 * from STEP Tools, Inc. (www.steptools.com) 
 */

FILE_DESCRIPTION(
/* description */ (''),
/* implementation_level */ '2;1');

FILE_NAME(
/* name */ 
'Q:\\Ric010\\FF7\\FIPlastiCAD\\FIP\\Lavoro\\PVC Fittings\\PVC Fittings
 STEP\\TRIV\\TRIV090040.ipt.stp',
/* time_stamp */ '2013-10-01T14:56:38+02:00',
/* author */ ('bfaro'),
/* organization */ (''),
/* preprocessor_version */ 'ST-DEVELOPER v15.2',
/* originating_system */ 'Autodesk Inventor 2014',
/* authorisation */ '');

FILE_SCHEMA (('AUTOMOTIVE_DESIGN { 1 0 10303 214 3 1 1 }'));
ENDSEC;

DATA;
#10=SHAPE_REPRESENTATION_RELATIONSHIP('SRR','None',#451,#11);
#11=ADVANCED_BREP_SHAPE_REPRESENTATION($,(#181),#442);
#12=STYLED_ITEM($,(#459),#181);
#13=PLANE($,#202);
#14=PLANE($,#203);
#15=PLANE($,#204);
#16=PLANE($,#205);
#17=PLANE($,#206);
#18=PLANE($,#207);
#19=FACE_BOUND($,#53,.T.);
#20=FACE_BOUND($,#55,.T.);
#21=FACE_BOUND($,#56,.T.);
#22=FACE_BOUND($,#58,.T.);
#23=FACE_BOUND($,#59,.T.);
#24=FACE_BOUND($,#61,.T.);
#25=FACE_BOUND($,#63,.T.);
#26=FACE_BOUND($,#65,.T.);
#27=FACE_BOUND($,#67,.T.);
#28=FACE_BOUND($,#69,.T.);
#29=FACE_BOUND($,#70,.T.);
#30=FACE_BOUND($,#71,.T.);
#31=FACE_BOUND($,#73,.T.);
#32=FACE_BOUND($,#75,.T.);
#33=FACE_BOUND($,#76,.T.);
#34=FACE_BOUND($,#77,.T.);
#35=FACE_BOUND($,#78,.T.);
#36=FACE_BOUND($,#79,.T.);
#37=B_SPLINE_CURVE_WITH_KNOTS($,3,(#265,#266,#267,#268,#269,#270,#271,#272,
#273,#274,#275,#276,#277,#278,#279,#280,#281,#282,#283,#284,#285,#286,#287,
#288,#289,#290,#291,#292,#293,#294,#295,#296,#297,#298,#299,#300,#301,#302,
#303,#304,#305,#306,#307,#308,#309,#310,#311,#312,#313,#314,#315,#316,#317,
#318,#319,#320,#321,#322,#323,#324,#325,#326,#327,#328,#329,#330),
 .UNSPECIFIED.,.T.,.F.,(4,2,2,2,2,2,2,2,2,2,2,2,2,2,2,2,2,2,2,2,2,2,2,2,
2,2,2,2,2,2,2,2,4),(0.,0.36366918370686,0.727338367413719,1.09100755112058,
1.45467673482744,1.81777703947966,2.18087734413188,2.5439776487841,2.90707795343632,
3.27017825808854,3.63327856274077,3.99637886739299,4.35947917204521,4.72314835575207,
5.08681753945893,5.45048672316579,5.81415590687265,6.17782509057459,6.54149427427654,
6.90516345797849,7.26883264168044,7.6319329463312,7.99503325098195,8.35813355563271,
8.72123386028347,9.08433416493423,9.44743446958499,9.81053477423574,10.1736350788865,
10.5373042625885,10.9009734462904,11.2646426299923,11.6283118136943),
 .UNSPECIFIED.);
#38=B_SPLINE_CURVE_WITH_KNOTS($,3,(#343,#344,#345,#346,#347,#348,#349,#350,
#351,#352,#353,#354,#355,#356,#357,#358,#359,#360),.UNSPECIFIED.,.F.,.F.,
(4,2,2,2,2,2,2,2,4),(7.6603748330094,8.13959091122748,8.61880698944556,
9.09802306766364,9.57723914588172,10.0555699217811,10.5339006976804,11.0122314735798,
11.4905622494791),.UNSPECIFIED.);
#39=B_SPLINE_CURVE_WITH_KNOTS($,3,(#362,#363,#364,#365,#366,#367,#368,#369,
#370,#371,#372,#373,#374,#375,#376,#377,#378,#379),.UNSPECIFIED.,.F.,.F.,
(4,2,2,2,2,2,2,2,4),(-7.6603748330094,-7.1811587547873,-6.7019426765652,
-6.22272659834311,-5.74351052012101,-5.26517974421693,-4.78684896831285,
-4.30851819240877,-3.83018741650469),.UNSPECIFIED.);
#40=B_SPLINE_CURVE_WITH_KNOTS($,3,(#381,#382,#383,#384,#385,#386,#387,#388,
#389,#390,#391,#392,#393,#394,#395,#396,#397,#398),.UNSPECIFIED.,.F.,.F.,
(4,2,2,2,2,2,2,2,4),(11.4905622494442,11.9688930253482,12.4472238012523,
12.9255545771564,13.4038853530605,13.8831014312826,14.3623175095047,14.8415335877268,
15.3207496659489),.UNSPECIFIED.);
#41=B_SPLINE_CURVE_WITH_KNOTS($,3,(#399,#400,#401,#402,#403,#404,#405,#406,
#407,#408,#409,#410,#411,#412,#413,#414,#415,#416),.UNSPECIFIED.,.F.,.F.,
(4,2,2,2,2,2,2,2,4),(-3.83018741646974,-3.35185664057176,-2.87352586467378,
-2.3951950887758,-1.91686431287782,-1.43764823465837,-0.958432156438921,
-0.479216078219472,-2.30926389122033E-014),.UNSPECIFIED.);
#42=FACE_OUTER_BOUND($,#52,.T.);
#43=FACE_OUTER_BOUND($,#54,.T.);
#44=FACE_OUTER_BOUND($,#57,.T.);
#45=FACE_OUTER_BOUND($,#60,.T.);
#46=FACE_OUTER_BOUND($,#62,.T.);
#47=FACE_OUTER_BOUND($,#64,.T.);
#48=FACE_OUTER_BOUND($,#66,.T.);
#49=FACE_OUTER_BOUND($,#68,.T.);
#50=FACE_OUTER_BOUND($,#72,.T.);
#51=FACE_OUTER_BOUND($,#74,.T.);
#52=EDGE_LOOP($,(#126));
#53=EDGE_LOOP($,(#127));
#54=EDGE_LOOP($,(#128));
#55=EDGE_LOOP($,(#129));
#56=EDGE_LOOP($,(#130));
#57=EDGE_LOOP($,(#131));
#58=EDGE_LOOP($,(#132));
#59=EDGE_LOOP($,(#133,#134,#135,#136));
#60=EDGE_LOOP($,(#137));
#61=EDGE_LOOP($,(#138));
#62=EDGE_LOOP($,(#139,#140,#141,#142));
#63=EDGE_LOOP($,(#143));
#64=EDGE_LOOP($,(#144));
#65=EDGE_LOOP($,(#145));
#66=EDGE_LOOP($,(#146));
#67=EDGE_LOOP($,(#147));
#68=EDGE_LOOP($,(#148));
#69=EDGE_LOOP($,(#149));
#70=EDGE_LOOP($,(#150));
#71=EDGE_LOOP($,(#151));
#72=EDGE_LOOP($,(#152));
#73=EDGE_LOOP($,(#153));
#74=EDGE_LOOP($,(#154));
#75=EDGE_LOOP($,(#155));
#76=EDGE_LOOP($,(#156));
#77=EDGE_LOOP($,(#157));
#78=EDGE_LOOP($,(#158));
#79=EDGE_LOOP($,(#159));
#80=CIRCLE($,#184,19.);
#81=CIRCLE($,#186,43.);
#82=CIRCLE($,#187,43.);
#83=CIRCLE($,#189,54.5);
#84=CIRCLE($,#190,54.5);
#85=CIRCLE($,#192,45.);
#86=CIRCLE($,#193,45.);
#87=CIRCLE($,#195,25.);
#88=CIRCLE($,#197,45.);
#89=CIRCLE($,#198,45.);
#90=CIRCLE($,#200,20.);
#91=CIRCLE($,#201,20.);
#92=VERTEX_POINT($,#262);
#93=VERTEX_POINT($,#264);
#94=VERTEX_POINT($,#332);
#95=VERTEX_POINT($,#334);
#96=VERTEX_POINT($,#337);
#97=VERTEX_POINT($,#339);
#98=VERTEX_POINT($,#341);
#99=VERTEX_POINT($,#342);
#100=VERTEX_POINT($,#361);
#101=VERTEX_POINT($,#380);
#102=VERTEX_POINT($,#418);
#103=VERTEX_POINT($,#420);
#104=VERTEX_POINT($,#423);
#105=VERTEX_POINT($,#426);
#106=VERTEX_POINT($,#428);
#107=VERTEX_POINT($,#431);
#108=VERTEX_POINT($,#433);
#109=EDGE_CURVE($,#92,#92,#80,.T.);
#110=EDGE_CURVE($,#93,#93,#37,.T.);
#111=EDGE_CURVE($,#94,#94,#81,.T.);
#112=EDGE_CURVE($,#95,#95,#82,.T.);
#113=EDGE_CURVE($,#96,#96,#83,.T.);
#114=EDGE_CURVE($,#97,#97,#84,.T.);
#115=EDGE_CURVE($,#98,#99,#38,.T.);
#116=EDGE_CURVE($,#98,#100,#39,.T.);
#117=EDGE_CURVE($,#100,#101,#40,.T.);
#118=EDGE_CURVE($,#99,#101,#41,.T.);
#119=EDGE_CURVE($,#102,#102,#85,.T.);
#120=EDGE_CURVE($,#103,#103,#86,.T.);
#121=EDGE_CURVE($,#104,#104,#87,.T.);
#122=EDGE_CURVE($,#105,#105,#88,.T.);
#123=EDGE_CURVE($,#106,#106,#89,.T.);
#124=EDGE_CURVE($,#107,#107,#90,.T.);
#125=EDGE_CURVE($,#108,#108,#91,.T.);
#126=ORIENTED_EDGE($,*,*,#109,.F.);
#127=ORIENTED_EDGE($,*,*,#110,.F.);
#128=ORIENTED_EDGE($,*,*,#111,.F.);
#129=ORIENTED_EDGE($,*,*,#112,.F.);
#130=ORIENTED_EDGE($,*,*,#110,.T.);
#131=ORIENTED_EDGE($,*,*,#113,.F.);
#132=ORIENTED_EDGE($,*,*,#114,.T.);
#133=ORIENTED_EDGE($,*,*,#115,.F.);
#134=ORIENTED_EDGE($,*,*,#116,.T.);
#135=ORIENTED_EDGE($,*,*,#117,.T.);
#136=ORIENTED_EDGE($,*,*,#118,.F.);
#137=ORIENTED_EDGE($,*,*,#119,.T.);
#138=ORIENTED_EDGE($,*,*,#120,.F.);
#139=ORIENTED_EDGE($,*,*,#116,.F.);
#140=ORIENTED_EDGE($,*,*,#115,.T.);
#141=ORIENTED_EDGE($,*,*,#118,.T.);
#142=ORIENTED_EDGE($,*,*,#117,.F.);
#143=ORIENTED_EDGE($,*,*,#121,.F.);
#144=ORIENTED_EDGE($,*,*,#122,.T.);
#145=ORIENTED_EDGE($,*,*,#123,.F.);
#146=ORIENTED_EDGE($,*,*,#124,.T.);
#147=ORIENTED_EDGE($,*,*,#125,.F.);
#148=ORIENTED_EDGE($,*,*,#114,.F.);
#149=ORIENTED_EDGE($,*,*,#120,.T.);
#150=ORIENTED_EDGE($,*,*,#112,.T.);
#151=ORIENTED_EDGE($,*,*,#119,.F.);
#152=ORIENTED_EDGE($,*,*,#113,.T.);
#153=ORIENTED_EDGE($,*,*,#122,.F.);
#154=ORIENTED_EDGE($,*,*,#121,.T.);
#155=ORIENTED_EDGE($,*,*,#124,.F.);
#156=ORIENTED_EDGE($,*,*,#111,.T.);
#157=ORIENTED_EDGE($,*,*,#123,.T.);
#158=ORIENTED_EDGE($,*,*,#109,.T.);
#159=ORIENTED_EDGE($,*,*,#125,.T.);
#160=CYLINDRICAL_SURFACE($,#183,19.);
#161=CYLINDRICAL_SURFACE($,#185,43.);
#162=CYLINDRICAL_SURFACE($,#188,54.5);
#163=CYLINDRICAL_SURFACE($,#191,45.);
#164=CYLINDRICAL_SURFACE($,#194,25.);
#165=CYLINDRICAL_SURFACE($,#196,45.);
#166=CYLINDRICAL_SURFACE($,#199,20.0000000000001);
#167=ADVANCED_FACE($,(#42,#19),#160,.F.);
#168=ADVANCED_FACE($,(#43,#20,#21),#161,.F.);
#169=ADVANCED_FACE($,(#44,#22,#23),#162,.T.);
#170=ADVANCED_FACE($,(#45,#24),#163,.F.);
#171=ADVANCED_FACE($,(#46,#25),#164,.T.);
#172=ADVANCED_FACE($,(#47,#26),#165,.F.);
#173=ADVANCED_FACE($,(#48,#27),#166,.F.);
#174=ADVANCED_FACE($,(#49,#28),#13,.T.);
#175=ADVANCED_FACE($,(#29,#30),#14,.T.);
#176=ADVANCED_FACE($,(#50,#31),#15,.T.);
#177=ADVANCED_FACE($,(#51,#32),#16,.T.);
#178=ADVANCED_FACE($,(#33,#34),#17,.T.);
#179=ADVANCED_FACE($,(#35,#36),#18,.T.);
#180=CLOSED_SHELL($,(#167,#168,#169,#170,#171,#172,#173,#174,#175,#176,
#177,#178,#179));
#181=MANIFOLD_SOLID_BREP('Solido1',#180);
#182=AXIS2_PLACEMENT_3D('placement',#260,#208,#209);
#183=AXIS2_PLACEMENT_3D($,#261,#210,#211);
#184=AXIS2_PLACEMENT_3D($,#263,#212,#213);
#185=AXIS2_PLACEMENT_3D($,#331,#214,#215);
#186=AXIS2_PLACEMENT_3D($,#333,#216,#217);
#187=AXIS2_PLACEMENT_3D($,#335,#218,#219);
#188=AXIS2_PLACEMENT_3D($,#336,#220,#221);
#189=AXIS2_PLACEMENT_3D($,#338,#222,#223);
#190=AXIS2_PLACEMENT_3D($,#340,#224,#225);
#191=AXIS2_PLACEMENT_3D($,#417,#226,#227);
#192=AXIS2_PLACEMENT_3D($,#419,#228,#229);
#193=AXIS2_PLACEMENT_3D($,#421,#230,#231);
#194=AXIS2_PLACEMENT_3D($,#422,#232,#233);
#195=AXIS2_PLACEMENT_3D($,#424,#234,#235);
#196=AXIS2_PLACEMENT_3D($,#425,#236,#237);
#197=AXIS2_PLACEMENT_3D($,#427,#238,#239);
#198=AXIS2_PLACEMENT_3D($,#429,#240,#241);
#199=AXIS2_PLACEMENT_3D($,#430,#242,#243);
#200=AXIS2_PLACEMENT_3D($,#432,#244,#245);
#201=AXIS2_PLACEMENT_3D($,#434,#246,#247);
#202=AXIS2_PLACEMENT_3D($,#435,#248,#249);
#203=AXIS2_PLACEMENT_3D($,#436,#250,#251);
#204=AXIS2_PLACEMENT_3D($,#437,#252,#253);
#205=AXIS2_PLACEMENT_3D($,#438,#254,#255);
#206=AXIS2_PLACEMENT_3D($,#439,#256,#257);
#207=AXIS2_PLACEMENT_3D($,#440,#258,#259);
#208=DIRECTION('axis',(0.,0.,1.));
#209=DIRECTION('refdir',(1.,0.,0.));
#210=DIRECTION('center_axis',(-1.,0.,-4.48966536910944E-011));
#211=DIRECTION('ref_axis',(-4.48966536910944E-011,0.,1.));
#212=DIRECTION('center_axis',(-1.,0.,-4.489664E-011));
#213=DIRECTION('ref_axis',(-4.48966536910944E-011,0.,1.));
#214=DIRECTION('center_axis',(0.,0.,-1.));
#215=DIRECTION('ref_axis',(-1.,0.,0.));
#216=DIRECTION('center_axis',(0.,0.,-1.));
#217=DIRECTION('ref_axis',(-1.,0.,0.));
#218=DIRECTION('center_axis',(0.,0.,1.));
#219=DIRECTION('ref_axis',(-1.,0.,0.));
#220=DIRECTION('center_axis',(0.,0.,1.));
#221=DIRECTION('ref_axis',(1.,0.,0.));
#222=DIRECTION('center_axis',(0.,0.,1.));
#223=DIRECTION('ref_axis',(1.,0.,0.));
#224=DIRECTION('center_axis',(0.,0.,1.));
#225=DIRECTION('ref_axis',(1.,0.,0.));
#226=DIRECTION('center_axis',(0.,0.,1.));
#227=DIRECTION('ref_axis',(1.,0.,0.));
#228=DIRECTION('center_axis',(0.,0.,1.));
#229=DIRECTION('ref_axis',(1.,0.,0.));
#230=DIRECTION('center_axis',(0.,0.,1.));
#231=DIRECTION('ref_axis',(1.,0.,0.));
#232=DIRECTION('center_axis',(1.,0.,4.489664E-011));
#233=DIRECTION('ref_axis',(4.489664E-011,0.,-1.));
#234=DIRECTION('center_axis',(1.,0.,4.489664E-011));
#235=DIRECTION('ref_axis',(4.489664E-011,0.,-1.));
#236=DIRECTION('center_axis',(0.,0.,1.));
#237=DIRECTION('ref_axis',(1.,0.,0.));
#238=DIRECTION('center_axis',(0.,0.,1.));
#239=DIRECTION('ref_axis',(1.,0.,0.));
#240=DIRECTION('center_axis',(0.,0.,1.));
#241=DIRECTION('ref_axis',(1.,0.,0.));
#242=DIRECTION('center_axis',(1.,1.76450235628729E-014,4.48953694733343E-011));
#243=DIRECTION('ref_axis',(4.48951986697919E-011,0.,-1.));
#244=DIRECTION('center_axis',(1.,0.,4.489664E-011));
#245=DIRECTION('ref_axis',(4.489664E-011,0.,-1.));
#246=DIRECTION('center_axis',(1.,0.,4.489664E-011));
#247=DIRECTION('ref_axis',(4.489664E-011,0.,-1.));
#248=DIRECTION('center_axis',(0.,0.,-1.));
#249=DIRECTION('ref_axis',(-1.,0.,0.));
#250=DIRECTION('center_axis',(0.,0.,-1.));
#251=DIRECTION('ref_axis',(-1.,0.,0.));
#252=DIRECTION('center_axis',(0.,0.,1.));
#253=DIRECTION('ref_axis',(1.,0.,0.));
#254=DIRECTION('center_axis',(1.,0.,4.489664E-011));
#255=DIRECTION('ref_axis',(4.48963533017377E-011,0.,-1.));
#256=DIRECTION('center_axis',(0.,0.,1.));
#257=DIRECTION('ref_axis',(1.,0.,0.));
#258=DIRECTION('center_axis',(1.,0.,4.489664E-011));
#259=DIRECTION('ref_axis',(4.48963533017377E-011,0.,-1.));
#260=CARTESIAN_POINT('',(0.,0.,0.));
#261=CARTESIAN_POINT('Origin',(48.,0.,99.000000002155));
#262=CARTESIAN_POINT('',(48.000000000853,2.32682891837997E-015,80.000000002155));
#263=CARTESIAN_POINT('Origin',(48.,0.,99.000000002155));
#264=CARTESIAN_POINT('',(38.5746030439718,19.,99.0000000017318));
#265=CARTESIAN_POINT('Ctrl Pts',(38.5746030439718,19.,99.0000000017318));
#266=CARTESIAN_POINT('Ctrl Pts',(38.5746030439718,19.,100.212230614088));
#267=CARTESIAN_POINT('Ctrl Pts',(38.6333861336189,18.8821391973984,101.459378499587));
#268=CARTESIAN_POINT('Ctrl Pts',(38.8687264418872,18.3928195059131,103.928276995754));
#269=CARTESIAN_POINT('Ctrl Pts',(39.0449585427236,18.0215363683364,105.150093415795));
#270=CARTESIAN_POINT('Ctrl Pts',(39.479992458949,17.0474252670891,107.484384023347));
#271=CARTESIAN_POINT('Ctrl Pts',(39.7386138341644,16.4438245851653,108.59903276459));
#272=CARTESIAN_POINT('Ctrl Pts',(40.2852221380467,15.0551543870592,110.656891676847));
#273=CARTESIAN_POINT('Ctrl Pts',(40.5726725701956,14.2699227646157,111.600134922295));
#274=CARTESIAN_POINT('Ctrl Pts',(41.12145093536,12.6014409251784,113.268616761757));
#275=CARTESIAN_POINT('Ctrl Pts',(41.4028930678394,11.6588326455051,114.053674157843));
#276=CARTESIAN_POINT('Ctrl Pts',(41.9279741348475,9.60067278731631,115.442888019441));
#277=CARTESIAN_POINT('Ctrl Pts',(42.1711810610089,8.48508411658777,116.047152782013));
#278=CARTESIAN_POINT('Ctrl Pts',(42.5746004676207,6.14886658381405,117.02202866217));
#279=CARTESIAN_POINT('Ctrl Pts',(42.7348717894799,4.92608803007636,117.393415815222));
#280=CARTESIAN_POINT('Ctrl Pts',(42.9476371072364,2.45684290310477,117.88247895771));
#281=CARTESIAN_POINT('Ctrl Pts',(43.,1.21033434884074,118.000000001931));
#282=CARTESIAN_POINT('Ctrl Pts',(43.,-1.21033434884074,118.000000001931));
#283=CARTESIAN_POINT('Ctrl Pts',(42.9476371072364,-2.45684290310477,117.88247895771));
#284=CARTESIAN_POINT('Ctrl Pts',(42.7348717894799,-4.92608803007636,117.393415815222));
#285=CARTESIAN_POINT('Ctrl Pts',(42.5746004676207,-6.14886658381405,117.02202866217));
#286=CARTESIAN_POINT('Ctrl Pts',(42.1711810610089,-8.48508411658777,116.047152782013));
#287=CARTESIAN_POINT('Ctrl Pts',(41.9279741348475,-9.60067278731631,115.442888019441));
#288=CARTESIAN_POINT('Ctrl Pts',(41.4028930678394,-11.658832645505,114.053674157843));
#289=CARTESIAN_POINT('Ctrl Pts',(41.12145093536,-12.6014409251784,113.268616761757));
#290=CARTESIAN_POINT('Ctrl Pts',(40.5726725701956,-14.2699227646157,111.600134922295));
#291=CARTESIAN_POINT('Ctrl Pts',(40.2852221380467,-15.0551543870592,110.656891676847));
#292=CARTESIAN_POINT('Ctrl Pts',(39.7386138341644,-16.4438245851653,108.59903276459));
#293=CARTESIAN_POINT('Ctrl Pts',(39.479992458949,-17.0474252670891,107.484384023347));
#294=CARTESIAN_POINT('Ctrl Pts',(39.0449585427236,-18.0215363683364,105.150093415795));
#295=CARTESIAN_POINT('Ctrl Pts',(38.8687264418872,-18.3928195059131,103.928276995754));
#296=CARTESIAN_POINT('Ctrl Pts',(38.6333861336189,-18.8821391973984,101.459378499587));
#297=CARTESIAN_POINT('Ctrl Pts',(38.5746030439718,-19.,100.212230614088));
#298=CARTESIAN_POINT('Ctrl Pts',(38.5746030439718,-19.,97.787769389392));
#299=CARTESIAN_POINT('Ctrl Pts',(38.6333861336174,-18.8821391974015,96.5406215039091));
#300=CARTESIAN_POINT('Ctrl Pts',(38.8687264418824,-18.3928195059233,94.0717230077763));
#301=CARTESIAN_POINT('Ctrl Pts',(39.044958542717,-18.0215363683505,92.8499065877521));
#302=CARTESIAN_POINT('Ctrl Pts',(39.4799924589401,-17.0474252671094,90.5156159802387));
#303=CARTESIAN_POINT('Ctrl Pts',(39.7386138341551,-16.4438245851878,89.4009672390163));
#304=CARTESIAN_POINT('Ctrl Pts',(40.2852221380373,-15.0551543870844,87.3431083268026));
#305=CARTESIAN_POINT('Ctrl Pts',(40.5726725701865,-14.2699227646417,86.3998650813778));
#306=CARTESIAN_POINT('Ctrl Pts',(41.1214509353539,-12.601440925199,84.731383241953));
#307=CARTESIAN_POINT('Ctrl Pts',(41.4028930678356,-11.6588326455189,83.9463258458851));
#308=CARTESIAN_POINT('Ctrl Pts',(41.9279741348471,-9.60067278731865,82.5571119843244));
#309=CARTESIAN_POINT('Ctrl Pts',(42.1711810610094,-8.48508411658529,81.9528472217718));
#310=CARTESIAN_POINT('Ctrl Pts',(42.574600467622,-6.14886658380548,80.9779713416494));
#311=CARTESIAN_POINT('Ctrl Pts',(42.734871789481,-4.92608803006664,80.6065841886127));
#312=CARTESIAN_POINT('Ctrl Pts',(42.9476371072368,-2.45684290309689,80.1175210461458));
#313=CARTESIAN_POINT('Ctrl Pts',(43.,-1.21033434883587,80.0000000019305));
#314=CARTESIAN_POINT('Ctrl Pts',(43.,1.21033434883586,80.0000000019305));
#315=CARTESIAN_POINT('Ctrl Pts',(42.9476371072368,2.45684290309688,80.1175210461458));
#316=CARTESIAN_POINT('Ctrl Pts',(42.734871789481,4.92608803006663,80.6065841886127));
#317=CARTESIAN_POINT('Ctrl Pts',(42.574600467622,6.14886658380548,80.9779713416494));
#318=CARTESIAN_POINT('Ctrl Pts',(42.1711810610094,8.48508411658528,81.9528472217718));
#319=CARTESIAN_POINT('Ctrl Pts',(41.9279741348471,9.60067278731863,82.5571119843244));
#320=CARTESIAN_POINT('Ctrl Pts',(41.4028930678356,11.6588326455189,83.9463258458851));
#321=CARTESIAN_POINT('Ctrl Pts',(41.1214509353539,12.601440925199,84.731383241953));
#322=CARTESIAN_POINT('Ctrl Pts',(40.5726725701865,14.2699227646417,86.3998650813778));
#323=CARTESIAN_POINT('Ctrl Pts',(40.2852221380373,15.0551543870844,87.3431083268026));
#324=CARTESIAN_POINT('Ctrl Pts',(39.7386138341551,16.4438245851878,89.4009672390163));
#325=CARTESIAN_POINT('Ctrl Pts',(39.4799924589401,17.0474252671094,90.5156159802388));
#326=CARTESIAN_POINT('Ctrl Pts',(39.044958542717,18.0215363683505,92.8499065877522));
#327=CARTESIAN_POINT('Ctrl Pts',(38.8687264418824,18.3928195059233,94.0717230077763));
#328=CARTESIAN_POINT('Ctrl Pts',(38.6333861336174,18.8821391974015,96.5406215039091));
#329=CARTESIAN_POINT('Ctrl Pts',(38.5746030439718,19.,97.787769389392));
#330=CARTESIAN_POINT('Ctrl Pts',(38.5746030439718,19.,99.0000000017318));
#331=CARTESIAN_POINT('Origin',(0.,0.,147.));
#332=CARTESIAN_POINT('',(43.,5.26598123633362E-015,147.));
#333=CARTESIAN_POINT('Origin',(0.,0.,147.));
#334=CARTESIAN_POINT('',(43.,5.26598123633362E-015,51.));
#335=CARTESIAN_POINT('Origin',(0.,0.,51.));
#336=CARTESIAN_POINT('Origin',(0.,0.,0.));
#337=CARTESIAN_POINT('',(-54.5,-6.674105E-015,198.));
#338=CARTESIAN_POINT('Origin',(0.,0.,198.));
#339=CARTESIAN_POINT('',(54.5,-1.334821E-014,0.));
#340=CARTESIAN_POINT('Origin',(0.,0.,0.));
#341=CARTESIAN_POINT('',(48.427781283061,-25.,99.000000002174));
#342=CARTESIAN_POINT('',(54.5,-3.2612801348364E-015,74.0000000024469));
#343=CARTESIAN_POINT('Ctrl Pts',(48.4277812830611,-25.,99.0000000021742));
#344=CARTESIAN_POINT('Ctrl Pts',(48.4277812830611,-25.,97.4026130747806));
#345=CARTESIAN_POINT('Ctrl Pts',(48.5090980143812,-24.8444709537818,95.7600849567054));
#346=CARTESIAN_POINT('Ctrl Pts',(48.8339665787712,-24.1996701398632,92.5099497657822));
#347=CARTESIAN_POINT('Ctrl Pts',(49.0770448667032,-23.7106390198334,90.9022476393667));
#348=CARTESIAN_POINT('Ctrl Pts',(49.6760865402081,-22.4284879477778,87.8316950967063));
#349=CARTESIAN_POINT('Ctrl Pts',(50.0317877455156,-21.634350249767,86.3659509515702));
#350=CARTESIAN_POINT('Ctrl Pts',(50.7825907679114,-19.8079118138736,83.6601520228937));
#351=CARTESIAN_POINT('Ctrl Pts',(51.1769630562806,-18.7753859102729,82.4200468532433));
#352=CARTESIAN_POINT('Ctrl Pts',(51.9290823777023,-16.5819810669421,80.2266420099461));
#353=CARTESIAN_POINT('Ctrl Pts',(52.3144964194338,-15.3428669626529,79.1943918147189));
#354=CARTESIAN_POINT('Ctrl Pts',(53.0332541661123,-12.6366156373802,77.3671169839541));
#355=CARTESIAN_POINT('Ctrl Pts',(53.3660178554119,-11.1694207621833,76.5719496364849));
#356=CARTESIAN_POINT('Ctrl Pts',(53.917943151471,-8.09587733241191,75.2886064041225));
#357=CARTESIAN_POINT('Ctrl Pts',(54.1371962884567,-6.48667211109502,74.7994080706504));
#358=CARTESIAN_POINT('Ctrl Pts',(54.4283140466691,-3.23598008229856,74.1550005490004));
#359=CARTESIAN_POINT('Ctrl Pts',(54.5,-1.5944359196645,74.0000000024469));
#360=CARTESIAN_POINT('Ctrl Pts',(54.5,0.,74.0000000024469));
#361=CARTESIAN_POINT('',(54.5,-1.334821E-014,124.00000000244));
#362=CARTESIAN_POINT('Ctrl Pts',(48.4277812830611,-25.,99.0000000021742));
#363=CARTESIAN_POINT('Ctrl Pts',(48.4277812830611,-25.,100.597386929581));
#364=CARTESIAN_POINT('Ctrl Pts',(48.5090980143825,-24.8444709537793,102.23991504767));
#365=CARTESIAN_POINT('Ctrl Pts',(48.8339665787738,-24.1996701398579,105.490050238623));
#366=CARTESIAN_POINT('Ctrl Pts',(49.0770448667059,-23.7106390198278,107.097752365055));
#367=CARTESIAN_POINT('Ctrl Pts',(49.6760865402084,-22.428487947777,110.168304907755));
#368=CARTESIAN_POINT('Ctrl Pts',(50.0317877455136,-21.6343502497714,111.634049052913));
#369=CARTESIAN_POINT('Ctrl Pts',(50.7825907679039,-19.8079118138925,114.339847981641));
#370=CARTESIAN_POINT('Ctrl Pts',(51.1769630562701,-18.7753859103011,115.579953151319));
#371=CARTESIAN_POINT('Ctrl Pts',(51.9290823776878,-16.5819810669868,117.773357994677));
#372=CARTESIAN_POINT('Ctrl Pts',(52.3144964194189,-15.3428669627037,118.805608189939));
#373=CARTESIAN_POINT('Ctrl Pts',(53.0332541660984,-12.6366156374382,120.632883020774));
#374=CARTESIAN_POINT('Ctrl Pts',(53.3660178553997,-11.1694207622423,121.428050368278));
#375=CARTESIAN_POINT('Ctrl Pts',(53.917943151463,-8.09587733246599,122.711393600701));
#376=CARTESIAN_POINT('Ctrl Pts',(54.1371962884512,-6.48667211114302,123.200591934199));
#377=CARTESIAN_POINT('Ctrl Pts',(54.4283140466677,-3.23598008232742,123.844999455884));
#378=CARTESIAN_POINT('Ctrl Pts',(54.5,-1.59443591968027,124.000000002447));
#379=CARTESIAN_POINT('Ctrl Pts',(54.5,-3.33066907387547E-015,124.000000002447));
#380=CARTESIAN_POINT('',(48.427781283061,25.,99.000000002174));
#381=CARTESIAN_POINT('Ctrl Pts',(54.5,3.33066907387547E-015,124.000000002447));
#382=CARTESIAN_POINT('Ctrl Pts',(54.5,1.59443591968026,124.000000002447));
#383=CARTESIAN_POINT('Ctrl Pts',(54.4283140466677,3.23598008232741,123.844999455884));
#384=CARTESIAN_POINT('Ctrl Pts',(54.1371962884512,6.48667211114302,123.200591934199));
#385=CARTESIAN_POINT('Ctrl Pts',(53.917943151463,8.09587733246599,122.711393600701));
#386=CARTESIAN_POINT('Ctrl Pts',(53.3660178553997,11.1694207622423,121.428050368278));
#387=CARTESIAN_POINT('Ctrl Pts',(53.0332541660984,12.6366156374382,120.632883020774));
#388=CARTESIAN_POINT('Ctrl Pts',(52.3144964194188,15.3428669627037,118.805608189939));
#389=CARTESIAN_POINT('Ctrl Pts',(51.9290823776878,16.5819810669868,117.773357994677));
#390=CARTESIAN_POINT('Ctrl Pts',(51.1769630562701,18.7753859103011,115.579953151319));
#391=CARTESIAN_POINT('Ctrl Pts',(50.7825907679039,19.8079118138925,114.339847981641));
#392=CARTESIAN_POINT('Ctrl Pts',(50.0317877455136,21.6343502497714,111.634049052913));
#393=CARTESIAN_POINT('Ctrl Pts',(49.6760865402084,22.428487947777,110.168304907755));
#394=CARTESIAN_POINT('Ctrl Pts',(49.0770448667059,23.7106390198278,107.097752365055));
#395=CARTESIAN_POINT('Ctrl Pts',(48.8339665787738,24.1996701398579,105.490050238623));
#396=CARTESIAN_POINT('Ctrl Pts',(48.5090980143825,24.8444709537793,102.23991504767));
#397=CARTESIAN_POINT('Ctrl Pts',(48.4277812830611,25.,100.597386929581));
#398=CARTESIAN_POINT('Ctrl Pts',(48.4277812830611,25.,99.0000000021742));
#399=CARTESIAN_POINT('Ctrl Pts',(54.5,-6.52256026967279E-015,74.0000000024469));
#400=CARTESIAN_POINT('Ctrl Pts',(54.5,1.59443591965994,74.0000000024469));
#401=CARTESIAN_POINT('Ctrl Pts',(54.4283140466695,3.23598008228951,74.1550005489996));
#402=CARTESIAN_POINT('Ctrl Pts',(54.1371962884586,6.48667211107763,74.799408070646));
#403=CARTESIAN_POINT('Ctrl Pts',(53.9179431514741,8.09587733239067,75.2886064041156));
#404=CARTESIAN_POINT('Ctrl Pts',(53.3660178554177,11.1694207621554,76.5719496364714));
#405=CARTESIAN_POINT('Ctrl Pts',(53.0332541661196,12.6366156373495,77.3671169839365));
#406=CARTESIAN_POINT('Ctrl Pts',(52.314496419444,15.3428669626179,79.1943918146921));
#407=CARTESIAN_POINT('Ctrl Pts',(51.9290823777139,16.5819810669056,80.2266420099143));
#408=CARTESIAN_POINT('Ctrl Pts',(51.1769630562924,18.7753859102411,82.4200468532068));
#409=CARTESIAN_POINT('Ctrl Pts',(50.7825907679219,19.8079118138469,83.6601520228587));
#410=CARTESIAN_POINT('Ctrl Pts',(50.0317877455233,21.6343502497495,86.3659509515395));
#411=CARTESIAN_POINT('Ctrl Pts',(49.6760865402143,22.4284879477642,87.8316950966785));
#412=CARTESIAN_POINT('Ctrl Pts',(49.0770448667066,23.7106390198264,90.9022476393456));
#413=CARTESIAN_POINT('Ctrl Pts',(48.8339665787733,24.1996701398588,92.5099497657649));
#414=CARTESIAN_POINT('Ctrl Pts',(48.5090980143817,24.8444709537809,95.7600849566963));
#415=CARTESIAN_POINT('Ctrl Pts',(48.4277812830611,25.,97.4026130747761));
#416=CARTESIAN_POINT('Ctrl Pts',(48.4277812830611,25.,99.0000000021742));
#417=CARTESIAN_POINT('Origin',(0.,0.,25.5));
#418=CARTESIAN_POINT('',(-45.,-5.510729E-015,51.));
#419=CARTESIAN_POINT('Origin',(0.,0.,51.));
#420=CARTESIAN_POINT('',(-45.,-5.510729E-015,0.));
#421=CARTESIAN_POINT('Origin',(0.,0.,0.));
#422=CARTESIAN_POINT('Origin',(0.,0.,99.));
#423=CARTESIAN_POINT('',(73.9999999988776,-3.061516E-015,124.000000003322));
#424=CARTESIAN_POINT('Origin',(74.,0.,99.000000003322));
#425=CARTESIAN_POINT('Origin',(0.,0.,172.5));
#426=CARTESIAN_POINT('',(-45.,-5.510729E-015,198.));
#427=CARTESIAN_POINT('Origin',(0.,0.,198.));
#428=CARTESIAN_POINT('',(-45.,-5.510729E-015,147.));
#429=CARTESIAN_POINT('Origin',(0.,0.,147.));
#430=CARTESIAN_POINT('Origin',(61.,0.,99.0000000027388));
#431=CARTESIAN_POINT('',(73.9999999991021,-2.449213E-015,119.000000003322));
#432=CARTESIAN_POINT('Origin',(74.,0.,99.000000003322));
#433=CARTESIAN_POINT('',(47.9999999991021,-2.449213E-015,119.000000002155));
#434=CARTESIAN_POINT('Origin',(48.,0.,99.000000002155));
#435=CARTESIAN_POINT('Origin',(0.,0.,0.));
#436=CARTESIAN_POINT('Origin',(0.,0.,51.));
#437=CARTESIAN_POINT('Origin',(0.,0.,198.));
#438=CARTESIAN_POINT('Origin',(74.,0.,99.000000003322));
#439=CARTESIAN_POINT('Origin',(0.,0.,147.));
#440=CARTESIAN_POINT('Origin',(48.,0.,99.000000002155));
#441=UNCERTAINTY_MEASURE_WITH_UNIT(LENGTH_MEASURE(0.01),#443,
'DISTANCE_ACCURACY_VALUE',
'Maximum model space distance between geometric entities at asserted c
onnectivities');
#442=(
GEOMETRIC_REPRESENTATION_CONTEXT(3)
GLOBAL_UNCERTAINTY_ASSIGNED_CONTEXT((#441))
GLOBAL_UNIT_ASSIGNED_CONTEXT((#443,#446,#444))
REPRESENTATION_CONTEXT('','3D')
);
#443=(
LENGTH_UNIT()
NAMED_UNIT(*)
SI_UNIT(.MILLI.,.METRE.)
);
#444=(
NAMED_UNIT(*)
SI_UNIT($,.STERADIAN.)
SOLID_ANGLE_UNIT()
);
#445=DIMENSIONAL_EXPONENTS(0.,0.,0.,0.,0.,0.,0.);
#446=(
CONVERSION_BASED_UNIT('degree',#448)
NAMED_UNIT(#445)
PLANE_ANGLE_UNIT()
);
#447=(
NAMED_UNIT(*)
PLANE_ANGLE_UNIT()
SI_UNIT($,.RADIAN.)
);
#448=PLANE_ANGLE_MEASURE_WITH_UNIT(PLANE_ANGLE_MEASURE(0.01745329252),#447);
#449=SHAPE_DEFINITION_REPRESENTATION(#450,#451);
#450=PRODUCT_DEFINITION_SHAPE('',$,#453);
#451=SHAPE_REPRESENTATION('',(#182),#442);
#452=PRODUCT_DEFINITION_CONTEXT('3D Mechanical Parts',#456,'design');
#453=PRODUCT_DEFINITION('TRIV090040','TRIV090040',#454,#452);
#454=PRODUCT_DEFINITION_FORMATION('',$,#458);
#455=APPLICATION_PROTOCOL_DEFINITION('international standard',
'automotive_design',2009,#456);
#456=APPLICATION_CONTEXT(
'Core Data for Automotive Mechanical Design Process');
#457=PRODUCT_CONTEXT('3D Mechanical Parts',#456,'mechanical');
#458=PRODUCT('TRIV090040','TRIV090040',$,(#457));
#459=PRESENTATION_STYLE_ASSIGNMENT((#460));
#460=SURFACE_STYLE_USAGE(.BOTH.,#461);
#461=SURFACE_SIDE_STYLE($,(#462));
#462=SURFACE_STYLE_FILL_AREA(#463);
#463=FILL_AREA_STYLE($,(#464));
#464=FILL_AREA_STYLE_COLOUR($,#465);
#465=COLOUR_RGB('',0.509803921568627,0.509803921568627,0.588235294117647);
ENDSEC;
END-ISO-10303-21;
