ISO-10303-21;
HEADER;
/* Generated by software containing ST-Developer
 * from STEP Tools, Inc. (www.steptools.com) 
 */

FILE_DESCRIPTION(
/* description */ (''),
/* implementation_level */ '2;1');

FILE_NAME(
/* name */ 'C:\\Users\\Gabriele\\Desktop\\catalogo\\EL50\\EL500750.stp',

/* time_stamp */ '2016-10-17T17:05:51+02:00',
/* author */ ('Gabriele'),
/* organization */ (''),
/* preprocessor_version */ 'ST-DEVELOPER v16.5',
/* originating_system */ 'Autodesk Inventor 2017',
/* authorisation */ '');

FILE_SCHEMA (('AUTOMOTIVE_DESIGN { 1 0 10303 214 3 1 1 }'));
ENDSEC;

DATA;
#10=MECHANICAL_DESIGN_GEOMETRIC_PRESENTATION_REPRESENTATION('',(#13),#394);
#11=SHAPE_REPRESENTATION_RELATIONSHIP('SRR','None',#403,#12);
#12=ADVANCED_BREP_SHAPE_REPRESENTATION('',(#14),#393);
#13=STYLED_ITEM('',(#412),#14);
#14=MANIFOLD_SOLID_BREP('Solido1',#189);
#15=PLANE('',#202);
#16=PLANE('',#212);
#17=PLANE('',#220);
#18=PLANE('',#221);
#19=TOROIDAL_SURFACE('',#199,38.,0.5);
#20=TOROIDAL_SURFACE('',#206,44.,0.5);
#21=TOROIDAL_SURFACE('',#209,38.,0.5);
#22=TOROIDAL_SURFACE('',#216,44.,0.5);
#23=TOROIDAL_SURFACE('',#217,40.,36.5);
#24=FACE_BOUND('',#74,.T.);
#25=FACE_BOUND('',#76,.T.);
#26=FACE_BOUND('',#78,.T.);
#27=FACE_BOUND('',#80,.T.);
#28=FACE_BOUND('',#82,.T.);
#29=FACE_BOUND('',#84,.T.);
#30=FACE_BOUND('',#86,.T.);
#31=FACE_BOUND('',#88,.T.);
#32=FACE_BOUND('',#90,.T.);
#33=FACE_BOUND('',#92,.T.);
#34=FACE_BOUND('',#94,.T.);
#35=FACE_BOUND('',#96,.T.);
#36=FACE_BOUND('',#98,.T.);
#37=CYLINDRICAL_SURFACE('',#197,44.5);
#38=CYLINDRICAL_SURFACE('',#204,37.5);
#39=CYLINDRICAL_SURFACE('',#208,44.5);
#40=CYLINDRICAL_SURFACE('',#214,37.5);
#41=CIRCLE('',#195,44.5);
#42=CIRCLE('',#196,44.5);
#43=CIRCLE('',#198,44.5);
#44=CIRCLE('',#200,37.5);
#45=CIRCLE('',#201,38.);
#46=CIRCLE('',#203,44.);
#47=CIRCLE('',#205,37.5);
#48=CIRCLE('',#207,44.5);
#49=CIRCLE('',#210,37.5);
#50=CIRCLE('',#211,38.);
#51=CIRCLE('',#213,44.);
#52=CIRCLE('',#215,37.5);
#53=CIRCLE('',#218,36.5);
#54=CIRCLE('',#219,36.5);
#55=(
BOUNDED_SURFACE()
B_SPLINE_SURFACE(2,2,((#325,#326,#327),(#328,#329,#330),(#331,#332,#333),
(#334,#335,#336),(#337,#338,#339),(#340,#341,#342),(#343,#344,#345),(#346,
#347,#348),(#349,#350,#351)),.UNSPECIFIED.,.F.,.F.,.F.)
B_SPLINE_SURFACE_WITH_KNOTS((3,2,2,2,3),(3,3),(-2.66682151066309,-1.33341075533155,
-6.66133814775094E-16,1.33341075533155,2.66682151066309),(0.,1.5707963267949),
 .UNSPECIFIED.)
GEOMETRIC_REPRESENTATION_ITEM()
RATIONAL_B_SPLINE_SURFACE(((1.,0.707106781186548,1.),(0.785863322475217,
0.555689284408017,0.785863322475217),(1.,0.707106781186548,1.),(0.785863322475218,
0.555689284408017,0.785863322475218),(1.,0.707106781186548,1.),(0.785863322475218,
0.555689284408017,0.785863322475218),(1.,0.707106781186548,1.),(0.785863322475218,
0.555689284408017,0.785863322475218),(1.,0.707106781186548,1.)))
REPRESENTATION_ITEM('')
SURFACE()
);
#56=FACE_OUTER_BOUND('',#71,.T.);
#57=FACE_OUTER_BOUND('',#72,.T.);
#58=FACE_OUTER_BOUND('',#73,.T.);
#59=FACE_OUTER_BOUND('',#75,.T.);
#60=FACE_OUTER_BOUND('',#77,.T.);
#61=FACE_OUTER_BOUND('',#79,.T.);
#62=FACE_OUTER_BOUND('',#81,.T.);
#63=FACE_OUTER_BOUND('',#83,.T.);
#64=FACE_OUTER_BOUND('',#85,.T.);
#65=FACE_OUTER_BOUND('',#87,.T.);
#66=FACE_OUTER_BOUND('',#89,.T.);
#67=FACE_OUTER_BOUND('',#91,.T.);
#68=FACE_OUTER_BOUND('',#93,.T.);
#69=FACE_OUTER_BOUND('',#95,.T.);
#70=FACE_OUTER_BOUND('',#97,.T.);
#71=EDGE_LOOP('',(#137,#138,#139,#140));
#72=EDGE_LOOP('',(#141,#142,#143,#144));
#73=EDGE_LOOP('',(#145));
#74=EDGE_LOOP('',(#146,#147));
#75=EDGE_LOOP('',(#148));
#76=EDGE_LOOP('',(#149));
#77=EDGE_LOOP('',(#150));
#78=EDGE_LOOP('',(#151));
#79=EDGE_LOOP('',(#152));
#80=EDGE_LOOP('',(#153));
#81=EDGE_LOOP('',(#154));
#82=EDGE_LOOP('',(#155));
#83=EDGE_LOOP('',(#156,#157));
#84=EDGE_LOOP('',(#158));
#85=EDGE_LOOP('',(#159));
#86=EDGE_LOOP('',(#160));
#87=EDGE_LOOP('',(#161));
#88=EDGE_LOOP('',(#162));
#89=EDGE_LOOP('',(#163));
#90=EDGE_LOOP('',(#164));
#91=EDGE_LOOP('',(#165));
#92=EDGE_LOOP('',(#166));
#93=EDGE_LOOP('',(#167));
#94=EDGE_LOOP('',(#168));
#95=EDGE_LOOP('',(#169));
#96=EDGE_LOOP('',(#170));
#97=EDGE_LOOP('',(#171));
#98=EDGE_LOOP('',(#172));
#99=ELLIPSE('',#191,0.529619524246934,0.500120017122473);
#100=ELLIPSE('',#192,63.2870444877939,44.5);
#101=ELLIPSE('',#193,0.529619524250387,0.50012001712387);
#102=ELLIPSE('',#194,63.2870444877939,44.5);
#103=VERTEX_POINT('',#317);
#104=VERTEX_POINT('',#318);
#105=VERTEX_POINT('',#320);
#106=VERTEX_POINT('',#322);
#107=VERTEX_POINT('',#355);
#108=VERTEX_POINT('',#358);
#109=VERTEX_POINT('',#360);
#110=VERTEX_POINT('',#363);
#111=VERTEX_POINT('',#366);
#112=VERTEX_POINT('',#369);
#113=VERTEX_POINT('',#373);
#114=VERTEX_POINT('',#375);
#115=VERTEX_POINT('',#378);
#116=VERTEX_POINT('',#381);
#117=VERTEX_POINT('',#385);
#118=VERTEX_POINT('',#387);
#119=EDGE_CURVE('',#103,#104,#99,.T.);
#120=EDGE_CURVE('',#103,#105,#100,.T.);
#121=EDGE_CURVE('',#106,#105,#101,.T.);
#122=EDGE_CURVE('',#106,#104,#102,.T.);
#123=EDGE_CURVE('',#105,#103,#41,.T.);
#124=EDGE_CURVE('',#106,#104,#42,.T.);
#125=EDGE_CURVE('',#107,#107,#43,.T.);
#126=EDGE_CURVE('',#108,#108,#44,.T.);
#127=EDGE_CURVE('',#109,#109,#45,.T.);
#128=EDGE_CURVE('',#110,#110,#46,.T.);
#129=EDGE_CURVE('',#111,#111,#47,.T.);
#130=EDGE_CURVE('',#112,#112,#48,.T.);
#131=EDGE_CURVE('',#113,#113,#49,.T.);
#132=EDGE_CURVE('',#114,#114,#50,.T.);
#133=EDGE_CURVE('',#115,#115,#51,.T.);
#134=EDGE_CURVE('',#116,#116,#52,.T.);
#135=EDGE_CURVE('',#117,#117,#53,.T.);
#136=EDGE_CURVE('',#118,#118,#54,.T.);
#137=ORIENTED_EDGE('',*,*,#119,.F.);
#138=ORIENTED_EDGE('',*,*,#120,.T.);
#139=ORIENTED_EDGE('',*,*,#121,.F.);
#140=ORIENTED_EDGE('',*,*,#122,.T.);
#141=ORIENTED_EDGE('',*,*,#121,.T.);
#142=ORIENTED_EDGE('',*,*,#123,.T.);
#143=ORIENTED_EDGE('',*,*,#119,.T.);
#144=ORIENTED_EDGE('',*,*,#124,.F.);
#145=ORIENTED_EDGE('',*,*,#125,.F.);
#146=ORIENTED_EDGE('',*,*,#120,.F.);
#147=ORIENTED_EDGE('',*,*,#123,.F.);
#148=ORIENTED_EDGE('',*,*,#126,.T.);
#149=ORIENTED_EDGE('',*,*,#127,.T.);
#150=ORIENTED_EDGE('',*,*,#128,.F.);
#151=ORIENTED_EDGE('',*,*,#127,.F.);
#152=ORIENTED_EDGE('',*,*,#129,.F.);
#153=ORIENTED_EDGE('',*,*,#126,.F.);
#154=ORIENTED_EDGE('',*,*,#130,.T.);
#155=ORIENTED_EDGE('',*,*,#128,.T.);
#156=ORIENTED_EDGE('',*,*,#122,.F.);
#157=ORIENTED_EDGE('',*,*,#124,.T.);
#158=ORIENTED_EDGE('',*,*,#130,.F.);
#159=ORIENTED_EDGE('',*,*,#131,.T.);
#160=ORIENTED_EDGE('',*,*,#132,.T.);
#161=ORIENTED_EDGE('',*,*,#133,.F.);
#162=ORIENTED_EDGE('',*,*,#132,.F.);
#163=ORIENTED_EDGE('',*,*,#134,.T.);
#164=ORIENTED_EDGE('',*,*,#131,.F.);
#165=ORIENTED_EDGE('',*,*,#133,.T.);
#166=ORIENTED_EDGE('',*,*,#125,.T.);
#167=ORIENTED_EDGE('',*,*,#135,.F.);
#168=ORIENTED_EDGE('',*,*,#136,.F.);
#169=ORIENTED_EDGE('',*,*,#129,.T.);
#170=ORIENTED_EDGE('',*,*,#135,.T.);
#171=ORIENTED_EDGE('',*,*,#134,.F.);
#172=ORIENTED_EDGE('',*,*,#136,.T.);
#173=B_SPLINE_SURFACE_WITH_KNOTS('',3,3,((#287,#288,#289,#290,#291,#292),
(#293,#294,#295,#296,#297,#298),(#299,#300,#301,#302,#303,#304),(#305,#306,
#307,#308,#309,#310),(#311,#312,#313,#314,#315,#316)),.UNSPECIFIED.,.F.,
 .F.,.F.,(4,1,4),(4,1,1,4),(0.,0.5,1.),(-0.476694894914216,-0.0680992706999183,
0.204297812109613,0.476694894919145),.UNSPECIFIED.);
#174=ADVANCED_FACE('',(#56),#173,.T.);
#175=ADVANCED_FACE('',(#57),#55,.F.);
#176=ADVANCED_FACE('',(#58,#24),#37,.T.);
#177=ADVANCED_FACE('',(#59,#25),#19,.T.);
#178=ADVANCED_FACE('',(#60,#26),#15,.T.);
#179=ADVANCED_FACE('',(#61,#27),#38,.F.);
#180=ADVANCED_FACE('',(#62,#28),#20,.T.);
#181=ADVANCED_FACE('',(#63,#29),#39,.T.);
#182=ADVANCED_FACE('',(#64,#30),#21,.T.);
#183=ADVANCED_FACE('',(#65,#31),#16,.F.);
#184=ADVANCED_FACE('',(#66,#32),#40,.F.);
#185=ADVANCED_FACE('',(#67,#33),#22,.T.);
#186=ADVANCED_FACE('',(#68,#34),#23,.F.);
#187=ADVANCED_FACE('',(#69,#35),#17,.T.);
#188=ADVANCED_FACE('',(#70,#36),#18,.F.);
#189=CLOSED_SHELL('',(#174,#175,#176,#177,#178,#179,#180,#181,#182,#183,
#184,#185,#186,#187,#188));
#190=AXIS2_PLACEMENT_3D('placement',#286,#222,#223);
#191=AXIS2_PLACEMENT_3D('',#319,#224,#225);
#192=AXIS2_PLACEMENT_3D('',#321,#226,#227);
#193=AXIS2_PLACEMENT_3D('',#323,#228,#229);
#194=AXIS2_PLACEMENT_3D('',#324,#230,#231);
#195=AXIS2_PLACEMENT_3D('',#352,#232,#233);
#196=AXIS2_PLACEMENT_3D('',#353,#234,#235);
#197=AXIS2_PLACEMENT_3D('',#354,#236,#237);
#198=AXIS2_PLACEMENT_3D('',#356,#238,#239);
#199=AXIS2_PLACEMENT_3D('',#357,#240,#241);
#200=AXIS2_PLACEMENT_3D('',#359,#242,#243);
#201=AXIS2_PLACEMENT_3D('',#361,#244,#245);
#202=AXIS2_PLACEMENT_3D('',#362,#246,#247);
#203=AXIS2_PLACEMENT_3D('',#364,#248,#249);
#204=AXIS2_PLACEMENT_3D('',#365,#250,#251);
#205=AXIS2_PLACEMENT_3D('',#367,#252,#253);
#206=AXIS2_PLACEMENT_3D('',#368,#254,#255);
#207=AXIS2_PLACEMENT_3D('',#370,#256,#257);
#208=AXIS2_PLACEMENT_3D('',#371,#258,#259);
#209=AXIS2_PLACEMENT_3D('',#372,#260,#261);
#210=AXIS2_PLACEMENT_3D('',#374,#262,#263);
#211=AXIS2_PLACEMENT_3D('',#376,#264,#265);
#212=AXIS2_PLACEMENT_3D('',#377,#266,#267);
#213=AXIS2_PLACEMENT_3D('',#379,#268,#269);
#214=AXIS2_PLACEMENT_3D('',#380,#270,#271);
#215=AXIS2_PLACEMENT_3D('',#382,#272,#273);
#216=AXIS2_PLACEMENT_3D('',#383,#274,#275);
#217=AXIS2_PLACEMENT_3D('',#384,#276,#277);
#218=AXIS2_PLACEMENT_3D('',#386,#278,#279);
#219=AXIS2_PLACEMENT_3D('',#388,#280,#281);
#220=AXIS2_PLACEMENT_3D('',#389,#282,#283);
#221=AXIS2_PLACEMENT_3D('',#390,#284,#285);
#222=DIRECTION('axis',(0.,0.,1.));
#223=DIRECTION('refdir',(1.,0.,0.));
#224=DIRECTION('center_axis',(0.206161058977055,-0.206161058977032,-0.956553833050147));
#225=DIRECTION('ref_axis',(-0.676385663722008,0.676385740117477,-0.291555765638534));
#226=DIRECTION('center_axis',(0.711046002609256,0.703145491469154,0.));
#227=DIRECTION('ref_axis',(0.703145491469154,-0.711046002609256,0.));
#228=DIRECTION('center_axis',(0.206161058976658,-0.206161058976623,0.956553833050321));
#229=DIRECTION('ref_axis',(0.676385663727352,-0.676385740112379,-0.291555765637963));
#230=DIRECTION('center_axis',(-0.703145491469154,-0.711046002609256,0.));
#231=DIRECTION('ref_axis',(0.711046002609256,-0.703145491469154,0.));
#232=DIRECTION('center_axis',(0.,1.,0.));
#233=DIRECTION('ref_axis',(-1.,0.,0.));
#234=DIRECTION('center_axis',(1.,6.12323399573677E-17,0.));
#235=DIRECTION('ref_axis',(-6.12323399573677E-17,1.,0.));
#236=DIRECTION('center_axis',(0.,1.,0.));
#237=DIRECTION('ref_axis',(-1.,0.,0.));
#238=DIRECTION('center_axis',(0.,-1.,0.));
#239=DIRECTION('ref_axis',(-1.,0.,0.));
#240=DIRECTION('center_axis',(-1.,-6.12323399573677E-17,0.));
#241=DIRECTION('ref_axis',(0.,0.,1.));
#242=DIRECTION('center_axis',(-1.,-6.12323399573677E-17,0.));
#243=DIRECTION('ref_axis',(-6.10622663543836E-17,1.,0.));
#244=DIRECTION('center_axis',(1.,6.12323399573677E-17,0.));
#245=DIRECTION('ref_axis',(-6.12323399573677E-17,1.,0.));
#246=DIRECTION('center_axis',(1.,6.12323399573677E-17,0.));
#247=DIRECTION('ref_axis',(0.,0.,1.));
#248=DIRECTION('center_axis',(-1.,-6.12323399573677E-17,0.));
#249=DIRECTION('ref_axis',(-6.12323399573677E-17,1.,0.));
#250=DIRECTION('center_axis',(1.,2.22044604925031E-16,0.));
#251=DIRECTION('ref_axis',(-2.22044604925031E-16,1.,0.));
#252=DIRECTION('center_axis',(1.,2.22044604925031E-16,0.));
#253=DIRECTION('ref_axis',(-2.22044604925031E-16,1.,0.));
#254=DIRECTION('center_axis',(1.,6.12323399573677E-17,0.));
#255=DIRECTION('ref_axis',(0.,0.,-1.));
#256=DIRECTION('center_axis',(1.,6.12323399573677E-17,0.));
#257=DIRECTION('ref_axis',(-6.08127780342431E-17,1.,0.));
#258=DIRECTION('center_axis',(1.,0.,0.));
#259=DIRECTION('ref_axis',(0.,1.,0.));
#260=DIRECTION('center_axis',(0.,1.,0.));
#261=DIRECTION('ref_axis',(0.,0.,1.));
#262=DIRECTION('center_axis',(0.,1.,0.));
#263=DIRECTION('ref_axis',(-1.,0.,0.));
#264=DIRECTION('center_axis',(0.,-1.,0.));
#265=DIRECTION('ref_axis',(-1.,0.,0.));
#266=DIRECTION('center_axis',(0.,1.,0.));
#267=DIRECTION('ref_axis',(0.,0.,1.));
#268=DIRECTION('center_axis',(0.,1.,0.));
#269=DIRECTION('ref_axis',(-1.,0.,0.));
#270=DIRECTION('center_axis',(0.,1.,0.));
#271=DIRECTION('ref_axis',(-1.,0.,0.));
#272=DIRECTION('center_axis',(0.,1.,0.));
#273=DIRECTION('ref_axis',(-1.,0.,0.));
#274=DIRECTION('center_axis',(0.,1.,0.));
#275=DIRECTION('ref_axis',(0.,0.,1.));
#276=DIRECTION('center_axis',(0.,0.,-1.));
#277=DIRECTION('ref_axis',(-1.,0.,0.));
#278=DIRECTION('center_axis',(-1.,-2.22044604925031E-16,0.));
#279=DIRECTION('ref_axis',(-2.22044604925031E-16,1.,0.));
#280=DIRECTION('center_axis',(0.,1.,0.));
#281=DIRECTION('ref_axis',(-1.,0.,0.));
#282=DIRECTION('center_axis',(1.,2.22044604925031E-16,0.));
#283=DIRECTION('ref_axis',(0.,0.,1.));
#284=DIRECTION('center_axis',(0.,1.,0.));
#285=DIRECTION('ref_axis',(0.,0.,1.));
#286=CARTESIAN_POINT('',(0.,0.,0.));
#287=CARTESIAN_POINT('Ctrl Pts',(39.5389755308783,44.0167663170894,-20.4186046038559));
#288=CARTESIAN_POINT('Ctrl Pts',(42.3199596954441,41.2045351394385,-15.0334538079116));
#289=CARTESIAN_POINT('Ctrl Pts',(45.0909804953998,38.4023792743087,-5.10112265466346));
#290=CARTESIAN_POINT('Ctrl Pts',(44.1144400229001,39.3898921116805,9.14118039232923));
#291=CARTESIAN_POINT('Ctrl Pts',(41.3929649738392,42.1419455320727,16.8285040734304));
#292=CARTESIAN_POINT('Ctrl Pts',(39.5389755307777,44.0167663171911,20.4186046040508));
#293=CARTESIAN_POINT('Ctrl Pts',(39.5606413727839,44.1196729748174,-20.3766504542174));
#294=CARTESIAN_POINT('Ctrl Pts',(42.3327894453182,41.3208157178555,-14.9941491261278));
#295=CARTESIAN_POINT('Ctrl Pts',(45.0868257096177,38.5375498552959,-5.08404973592628));
#296=CARTESIAN_POINT('Ctrl Pts',(44.1169284034477,39.5179571694665,9.11245875946814));
#297=CARTESIAN_POINT('Ctrl Pts',(41.4087400877241,42.2537681369263,16.7883162356948));
#298=CARTESIAN_POINT('Ctrl Pts',(39.5606413726835,44.1196729749187,20.3766504544122));
#299=CARTESIAN_POINT('Ctrl Pts',(39.6750139759741,44.3249860240258,-20.3296872493086));
#300=CARTESIAN_POINT('Ctrl Pts',(42.4475938937592,41.5524061062408,-14.9493610757426));
#301=CARTESIAN_POINT('Ctrl Pts',(45.1937924250698,38.8062075749302,-5.06445156364102));
#302=CARTESIAN_POINT('Ctrl Pts',(44.227278350315,39.772721649685,9.07935376978369));
#303=CARTESIAN_POINT('Ctrl Pts',(41.5234005877483,42.4765994122517,16.7428031338015));
#304=CARTESIAN_POINT('Ctrl Pts',(39.6750139758738,44.3249860241262,20.3296872495033));
#305=CARTESIAN_POINT('Ctrl Pts',(39.8803270251826,44.4393586272162,-20.3766504542174));
#306=CARTESIAN_POINT('Ctrl Pts',(42.6791842821445,41.6672105546818,-14.9941491261278));
#307=CARTESIAN_POINT('Ctrl Pts',(45.4624501447086,38.9131742903778,-5.08404973591624));
#308=CARTESIAN_POINT('Ctrl Pts',(44.4820428305288,39.8830715965571,9.11245875947233));
#309=CARTESIAN_POINT('Ctrl Pts',(41.7462318630737,42.5912599122759,16.7883162356948));
#310=CARTESIAN_POINT('Ctrl Pts',(39.8803270250813,44.4393586273165,20.3766504544122));
#311=CARTESIAN_POINT('Ctrl Pts',(39.9832336829106,44.4610244691217,-20.4186046038559));
#312=CARTESIAN_POINT('Ctrl Pts',(42.7954648605615,41.6800403045559,-15.0334538079116));
#313=CARTESIAN_POINT('Ctrl Pts',(45.5976207256973,38.9090195045942,-5.10112265464986));
#314=CARTESIAN_POINT('Ctrl Pts',(44.6101078883131,39.8855599771063,9.1411803923349));
#315=CARTESIAN_POINT('Ctrl Pts',(41.8580544679273,42.6070350261608,16.8285040734304));
#316=CARTESIAN_POINT('Ctrl Pts',(39.9832336828089,44.4610244692224,20.4186046040508));
#317=CARTESIAN_POINT('',(39.5555555555556,44.,20.3864667044429));
#318=CARTESIAN_POINT('',(40.,44.4444444444445,20.3864667044429));
#319=CARTESIAN_POINT('Origin',(40.0564424900397,43.9435575065518,20.506585009437));
#320=CARTESIAN_POINT('',(39.5555555555556,44.,-20.3864667044429));
#321=CARTESIAN_POINT('Origin',(0.,84.,0.));
#322=CARTESIAN_POINT('',(40.,44.4444444444445,-20.3864667044429));
#323=CARTESIAN_POINT('Origin',(40.0564424900423,43.9435575065497,-20.5065850094377));
#324=CARTESIAN_POINT('Origin',(0.,84.,0.));
#325=CARTESIAN_POINT('Ctrl Pts',(39.5781826745121,44.,20.3425036852141));
#326=CARTESIAN_POINT('Ctrl Pts',(39.5781826745121,44.4218173254879,20.3425036852141));
#327=CARTESIAN_POINT('Ctrl Pts',(40.,44.4218173254879,20.3425036852141));
#328=CARTESIAN_POINT('Ctrl Pts',(23.5705532331018,44.,51.4867960506877));
#329=CARTESIAN_POINT('Ctrl Pts',(23.5705532331019,60.4294467668982,51.4867960506877));
#330=CARTESIAN_POINT('Ctrl Pts',(40.,60.4294467668982,51.4867960506877));
#331=CARTESIAN_POINT('Ctrl Pts',(-10.4647233834491,44.,43.2520469400917));
#332=CARTESIAN_POINT('Ctrl Pts',(-10.4647233834491,94.4647233834491,43.2520469400917));
#333=CARTESIAN_POINT('Ctrl Pts',(40.,94.4647233834491,43.2520469400917));
#334=CARTESIAN_POINT('Ctrl Pts',(-44.5,44.,35.0172978294957));
#335=CARTESIAN_POINT('Ctrl Pts',(-44.5,128.5,35.0172978294957));
#336=CARTESIAN_POINT('Ctrl Pts',(40.,128.5,35.0172978294957));
#337=CARTESIAN_POINT('Ctrl Pts',(-44.5,44.,2.96429547574917E-14));
#338=CARTESIAN_POINT('Ctrl Pts',(-44.5,128.5,2.96429547574917E-14));
#339=CARTESIAN_POINT('Ctrl Pts',(40.,128.5,2.96429547574917E-14));
#340=CARTESIAN_POINT('Ctrl Pts',(-44.5,44.,-35.0172978294956));
#341=CARTESIAN_POINT('Ctrl Pts',(-44.5,128.5,-35.0172978294956));
#342=CARTESIAN_POINT('Ctrl Pts',(40.,128.5,-35.0172978294956));
#343=CARTESIAN_POINT('Ctrl Pts',(-10.4647233834491,44.,-43.2520469400917));
#344=CARTESIAN_POINT('Ctrl Pts',(-10.4647233834491,94.4647233834491,-43.2520469400917));
#345=CARTESIAN_POINT('Ctrl Pts',(40.,94.4647233834491,-43.2520469400917));
#346=CARTESIAN_POINT('Ctrl Pts',(23.5705532331018,44.,-51.4867960506878));
#347=CARTESIAN_POINT('Ctrl Pts',(23.5705532331018,60.4294467668982,-51.4867960506878));
#348=CARTESIAN_POINT('Ctrl Pts',(40.,60.4294467668982,-51.4867960506878));
#349=CARTESIAN_POINT('Ctrl Pts',(39.5781826745121,44.,-20.3425036852142));
#350=CARTESIAN_POINT('Ctrl Pts',(39.5781826745121,44.4218173254879,-20.3425036852142));
#351=CARTESIAN_POINT('Ctrl Pts',(40.,44.4218173254879,-20.3425036852142));
#352=CARTESIAN_POINT('Origin',(0.,44.,0.));
#353=CARTESIAN_POINT('Origin',(40.,84.,0.));
#354=CARTESIAN_POINT('Origin',(0.,0.,0.));
#355=CARTESIAN_POINT('',(44.5,0.5,5.44967825620572E-15));
#356=CARTESIAN_POINT('Origin',(0.,0.5,0.));
#357=CARTESIAN_POINT('Origin',(83.5,84.,0.));
#358=CARTESIAN_POINT('',(83.5,46.5,4.59242549680258E-15));
#359=CARTESIAN_POINT('Origin',(83.5,84.,0.));
#360=CARTESIAN_POINT('',(84.,46.,-4.65365783675994E-15));
#361=CARTESIAN_POINT('Origin',(84.,84.,0.));
#362=CARTESIAN_POINT('Origin',(84.,84.,0.));
#363=CARTESIAN_POINT('',(84.,40.,5.38844591624836E-15));
#364=CARTESIAN_POINT('Origin',(84.,84.,0.));
#365=CARTESIAN_POINT('Origin',(84.,84.,0.));
#366=CARTESIAN_POINT('',(40.,46.5,4.59242549680258E-15));
#367=CARTESIAN_POINT('Origin',(40.,84.,0.));
#368=CARTESIAN_POINT('Origin',(83.5,84.,0.));
#369=CARTESIAN_POINT('',(83.5,39.5,-5.44967825620572E-15));
#370=CARTESIAN_POINT('Origin',(83.5,84.,0.));
#371=CARTESIAN_POINT('Origin',(40.,84.,0.));
#372=CARTESIAN_POINT('Origin',(0.,0.5,0.));
#373=CARTESIAN_POINT('',(37.5,0.5,-4.59242549680258E-15));
#374=CARTESIAN_POINT('Origin',(0.,0.5,0.));
#375=CARTESIAN_POINT('',(38.,0.,4.65365783675994E-15));
#376=CARTESIAN_POINT('Origin',(0.,0.,0.));
#377=CARTESIAN_POINT('Origin',(-4.44595297693156E-15,0.,0.));
#378=CARTESIAN_POINT('',(44.,0.,-5.38844591624836E-15));
#379=CARTESIAN_POINT('Origin',(0.,0.,0.));
#380=CARTESIAN_POINT('Origin',(0.,0.,0.));
#381=CARTESIAN_POINT('',(37.5,44.,4.59242549680258E-15));
#382=CARTESIAN_POINT('Origin',(0.,44.,0.));
#383=CARTESIAN_POINT('Origin',(0.,0.5,0.));
#384=CARTESIAN_POINT('Origin',(40.,44.,0.));
#385=CARTESIAN_POINT('',(40.,120.5,0.));
#386=CARTESIAN_POINT('Origin',(40.,84.,0.));
#387=CARTESIAN_POINT('',(-36.5,44.,0.));
#388=CARTESIAN_POINT('Origin',(0.,44.,0.));
#389=CARTESIAN_POINT('Origin',(40.,84.,-7.89491928622334E-16));
#390=CARTESIAN_POINT('Origin',(-3.54066983922288E-15,44.,-7.89491928622334E-16));
#391=UNCERTAINTY_MEASURE_WITH_UNIT(LENGTH_MEASURE(0.01),#395,
'DISTANCE_ACCURACY_VALUE',
'Maximum model space distance between geometric entities at asserted c
onnectivities');
#392=UNCERTAINTY_MEASURE_WITH_UNIT(LENGTH_MEASURE(1.E-6),#395,
'DISTANCE_ACCURACY_VALUE',
'Maximum model space distance between geometric entities at asserted c
onnectivities');
#393=(
GEOMETRIC_REPRESENTATION_CONTEXT(3)
GLOBAL_UNCERTAINTY_ASSIGNED_CONTEXT((#391))
GLOBAL_UNIT_ASSIGNED_CONTEXT((#395,#398,#396))
REPRESENTATION_CONTEXT('','3D')
);
#394=(
GEOMETRIC_REPRESENTATION_CONTEXT(3)
GLOBAL_UNCERTAINTY_ASSIGNED_CONTEXT((#392))
GLOBAL_UNIT_ASSIGNED_CONTEXT((#395,#398,#396))
REPRESENTATION_CONTEXT('','3D')
);
#395=(
LENGTH_UNIT()
NAMED_UNIT(*)
SI_UNIT(.MILLI.,.METRE.)
);
#396=(
NAMED_UNIT(*)
SI_UNIT($,.STERADIAN.)
SOLID_ANGLE_UNIT()
);
#397=DIMENSIONAL_EXPONENTS(0.,0.,0.,0.,0.,0.,0.);
#398=(
CONVERSION_BASED_UNIT('degree',#400)
NAMED_UNIT(#397)
PLANE_ANGLE_UNIT()
);
#399=(
NAMED_UNIT(*)
PLANE_ANGLE_UNIT()
SI_UNIT($,.RADIAN.)
);
#400=PLANE_ANGLE_MEASURE_WITH_UNIT(PLANE_ANGLE_MEASURE(0.01745329252),#399);
#401=SHAPE_DEFINITION_REPRESENTATION(#402,#403);
#402=PRODUCT_DEFINITION_SHAPE('',$,#405);
#403=SHAPE_REPRESENTATION('',(#190),#393);
#404=PRODUCT_DEFINITION_CONTEXT('part definition',#409,'design');
#405=PRODUCT_DEFINITION('EL500750','EL500750',#406,#404);
#406=PRODUCT_DEFINITION_FORMATION('',$,#411);
#407=PRODUCT_RELATED_PRODUCT_CATEGORY('EL500750','EL500750',(#411));
#408=APPLICATION_PROTOCOL_DEFINITION('international standard',
'automotive_design',2009,#409);
#409=APPLICATION_CONTEXT(
'Core Data for Automotive Mechanical Design Process');
#410=PRODUCT_CONTEXT('part definition',#409,'mechanical');
#411=PRODUCT('EL500750','EL500750',$,(#410));
#412=PRESENTATION_STYLE_ASSIGNMENT((#413));
#413=SURFACE_STYLE_USAGE(.BOTH.,#414);
#414=SURFACE_SIDE_STYLE('',(#415));
#415=SURFACE_STYLE_FILL_AREA(#416);
#416=FILL_AREA_STYLE('',(#417));
#417=FILL_AREA_STYLE_COLOUR('',#418);
#418=COLOUR_RGB('',0.8,0.8,0.8);
ENDSEC;
END-ISO-10303-21;
