ISO-10303-21;
HEADER;
FILE_DESCRIPTION( ( 'STEP AP214' ), '1' );
FILE_NAME( 'p:/temp/worker_17/temp/exporttempdir_6908_886_1c00E/format_0/AGRU_11193906371_Poly-Flo End Cap_PPR grey_90_63  SDR17_11 (architecture400).stp', '2022-02-02T09:21:33', ( 'License CC BY-ND 4.0' ), ( 'CADENAS' ), ' ', 'PARTsolutions', ' ' );
FILE_SCHEMA( ( 'AUTOMOTIVE_DESIGN { 1 0 10303 214 1 1 1 1 }' ) );
ENDSEC;
DATA;
#1 = MECHANICAL_DESIGN_GEOMETRIC_PRESENTATION_REPRESENTATION( ' ', ( #10, #11, #12, #13, #14, #15, #16, #17, #18, #19, #20, #21, #22 ), #6 );
#2 = PRODUCT_DEFINITION_CONTEXT( '', #23, 'design' );
#3 = APPLICATION_PROTOCOL_DEFINITION( 'international standard', 'automotive_design', 2001, #23 );
#4 = PRODUCT_CATEGORY_RELATIONSHIP( 'NONE', 'NONE', #24, #25 );
#5 = SHAPE_DEFINITION_REPRESENTATION( #26, #27 );
#6 =  ( GEOMETRIC_REPRESENTATION_CONTEXT( 3 )GLOBAL_UNCERTAINTY_ASSIGNED_CONTEXT( ( #30 ) )GLOBAL_UNIT_ASSIGNED_CONTEXT( ( #32, #33, #34 ) )REPRESENTATION_CONTEXT( 'NONE', 'WORKSPACE' ) );
#10 = STYLED_ITEM( '', ( #36 ), #37 );
#11 = STYLED_ITEM( '', ( #38 ), #39 );
#12 = STYLED_ITEM( '', ( #40 ), #41 );
#13 = STYLED_ITEM( '', ( #42 ), #43 );
#14 = STYLED_ITEM( '', ( #44 ), #45 );
#15 = STYLED_ITEM( '', ( #46 ), #47 );
#16 = STYLED_ITEM( '', ( #48 ), #49 );
#17 = STYLED_ITEM( '', ( #50 ), #51 );
#18 = STYLED_ITEM( '', ( #52 ), #53 );
#19 = STYLED_ITEM( '', ( #54 ), #55 );
#20 = STYLED_ITEM( '', ( #56 ), #57 );
#21 = STYLED_ITEM( '', ( #58 ), #59 );
#22 = STYLED_ITEM( '', ( #60 ), #61 );
#23 = APPLICATION_CONTEXT( 'core data for automotive mechanical design processes' );
#24 = PRODUCT_CATEGORY( 'part', 'NONE' );
#25 = PRODUCT_RELATED_PRODUCT_CATEGORY( 'detail', ' ', ( #62 ) );
#26 = PRODUCT_DEFINITION_SHAPE( 'NONE', 'NONE', #63 );
#27 = ADVANCED_BREP_SHAPE_REPRESENTATION( '_AGRU_11193906371_Poly-Flo End Cap_PPR grey_90/63  SDR17/11 (architecture400)', ( #64, #65 ), #6 );
#30 = UNCERTAINTY_MEASURE_WITH_UNIT( LENGTH_MEASURE( 0.00100000000000000 ), #32, '', '' );
#32 =  ( CONVERSION_BASED_UNIT( 'MILLIMETRE', #68 )LENGTH_UNIT(  )NAMED_UNIT( #71 ) );
#33 =  ( NAMED_UNIT( #73 )PLANE_ANGLE_UNIT(  )SI_UNIT( $, .RADIAN. ) );
#34 =  ( NAMED_UNIT( #73 )SI_UNIT( $, .STERADIAN. )SOLID_ANGLE_UNIT(  ) );
#36 = PRESENTATION_STYLE_ASSIGNMENT( ( #79 ) );
#37 = ADVANCED_FACE( '', ( #80 ), #81, .F. );
#38 = PRESENTATION_STYLE_ASSIGNMENT( ( #82 ) );
#39 = ADVANCED_FACE( '', ( #83, #84 ), #85, .F. );
#40 = PRESENTATION_STYLE_ASSIGNMENT( ( #86 ) );
#41 = ADVANCED_FACE( '', ( #87, #88 ), #89, .F. );
#42 = PRESENTATION_STYLE_ASSIGNMENT( ( #90 ) );
#43 = ADVANCED_FACE( '', ( #91, #92 ), #93, .F. );
#44 = PRESENTATION_STYLE_ASSIGNMENT( ( #94 ) );
#45 = ADVANCED_FACE( '', ( #95, #96 ), #97, .F. );
#46 = PRESENTATION_STYLE_ASSIGNMENT( ( #98 ) );
#47 = ADVANCED_FACE( '', ( #99, #100 ), #101, .F. );
#48 = PRESENTATION_STYLE_ASSIGNMENT( ( #102 ) );
#49 = ADVANCED_FACE( '', ( #103, #104 ), #105, .F. );
#50 = PRESENTATION_STYLE_ASSIGNMENT( ( #106 ) );
#51 = ADVANCED_FACE( '', ( #107, #108 ), #109, .T. );
#52 = PRESENTATION_STYLE_ASSIGNMENT( ( #110 ) );
#53 = ADVANCED_FACE( '', ( #111, #112 ), #113, .T. );
#54 = PRESENTATION_STYLE_ASSIGNMENT( ( #114 ) );
#55 = ADVANCED_FACE( '', ( #115, #116 ), #117, .T. );
#56 = PRESENTATION_STYLE_ASSIGNMENT( ( #118 ) );
#57 = ADVANCED_FACE( '', ( #119 ), #120, .F. );
#58 = PRESENTATION_STYLE_ASSIGNMENT( ( #121 ) );
#59 = ADVANCED_FACE( '', ( #122, #123 ), #124, .F. );
#60 = PRESENTATION_STYLE_ASSIGNMENT( ( #125 ) );
#61 = ADVANCED_FACE( '', ( #126, #127 ), #128, .F. );
#62 = PRODUCT( '_AGRU_11193906371_Poly-Flo End Cap_PPR grey_90/63  SDR17/11 (architecture400)', '_AGRU_11193906371_Poly-Flo End Cap_PPR grey_90/63  SDR17/11 (architecture400)', 'PART-_AGRU_11193906371_Poly-Flo End Cap_PPR grey_90/63  SDR17/11 (architecture400)-DESC', ( #129 ) );
#63 = PRODUCT_DEFINITION( 'NONE', 'NONE', #130, #2 );
#64 = MANIFOLD_SOLID_BREP( '_AGRU_11193906371_Poly-Flo End Cap_PPR grey_90/63  SDR17/11 (architecture400)', #131 );
#65 = AXIS2_PLACEMENT_3D( '', #132, #133, #134 );
#68 = LENGTH_MEASURE_WITH_UNIT( LENGTH_MEASURE( 1.00000000000000 ), #135 );
#71 = DIMENSIONAL_EXPONENTS( 1.00000000000000, 0.000000000000000, 0.000000000000000, 0.000000000000000, 0.000000000000000, 0.000000000000000, 0.000000000000000 );
#73 = DIMENSIONAL_EXPONENTS( 0.000000000000000, 0.000000000000000, 0.000000000000000, 0.000000000000000, 0.000000000000000, 0.000000000000000, 0.000000000000000 );
#79 = SURFACE_STYLE_USAGE( .BOTH., #136 );
#80 = FACE_OUTER_BOUND( '', #137, .T. );
#81 = PLANE( '', #138 );
#82 = SURFACE_STYLE_USAGE( .BOTH., #139 );
#83 = FACE_OUTER_BOUND( '', #140, .T. );
#84 = FACE_BOUND( '', #141, .T. );
#85 = PLANE( '', #142 );
#86 = SURFACE_STYLE_USAGE( .BOTH., #143 );
#87 = FACE_OUTER_BOUND( '', #144, .T. );
#88 = FACE_BOUND( '', #145, .T. );
#89 = PLANE( '', #146 );
#90 = SURFACE_STYLE_USAGE( .BOTH., #147 );
#91 = FACE_OUTER_BOUND( '', #148, .T. );
#92 = FACE_OUTER_BOUND( '', #149, .T. );
#93 = CYLINDRICAL_SURFACE( '', #150, 25.7000000000000 );
#94 = SURFACE_STYLE_USAGE( .BOTH., #151 );
#95 = FACE_OUTER_BOUND( '', #152, .T. );
#96 = FACE_OUTER_BOUND( '', #153, .T. );
#97 = TOROIDAL_SURFACE( '', #154, 37.6200000000000, 1.98000000000000 );
#98 = SURFACE_STYLE_USAGE( .BOTH., #155 );
#99 = FACE_OUTER_BOUND( '', #156, .T. );
#100 = FACE_OUTER_BOUND( '', #157, .T. );
#101 = TOROIDAL_SURFACE( '', #158, 33.4800000000000, 1.98000000000000 );
#102 = SURFACE_STYLE_USAGE( .BOTH., #159 );
#103 = FACE_OUTER_BOUND( '', #160, .T. );
#104 = FACE_OUTER_BOUND( '', #161, .T. );
#105 = TOROIDAL_SURFACE( '', #162, 23.2000000000000, 2.50000000000000 );
#106 = SURFACE_STYLE_USAGE( .BOTH., #163 );
#107 = FACE_OUTER_BOUND( '', #164, .T. );
#108 = FACE_OUTER_BOUND( '', #165, .T. );
#109 = CYLINDRICAL_SURFACE( '', #166, 45.0000000000000 );
#110 = SURFACE_STYLE_USAGE( .BOTH., #167 );
#111 = FACE_OUTER_BOUND( '', #168, .T. );
#112 = FACE_OUTER_BOUND( '', #169, .T. );
#113 = TOROIDAL_SURFACE( '', #170, 39.6000000000000, 5.40000000000000 );
#114 = SURFACE_STYLE_USAGE( .BOTH., #171 );
#115 = FACE_OUTER_BOUND( '', #172, .T. );
#116 = FACE_OUTER_BOUND( '', #173, .T. );
#117 = CYLINDRICAL_SURFACE( '', #174, 31.5000000000000 );
#118 = SURFACE_STYLE_USAGE( .BOTH., #175 );
#119 = FACE_OUTER_BOUND( '', #176, .T. );
#120 = PLANE( '', #177 );
#121 = SURFACE_STYLE_USAGE( .BOTH., #178 );
#122 = FACE_OUTER_BOUND( '', #179, .T. );
#123 = FACE_OUTER_BOUND( '', #180, .T. );
#124 = CYLINDRICAL_SURFACE( '', #181, 39.6000000000000 );
#125 = SURFACE_STYLE_USAGE( .BOTH., #182 );
#126 = FACE_OUTER_BOUND( '', #183, .T. );
#127 = FACE_BOUND( '', #184, .T. );
#128 = PLANE( '', #185 );
#129 = PRODUCT_CONTEXT( '', #23, 'mechanical' );
#130 = PRODUCT_DEFINITION_FORMATION_WITH_SPECIFIED_SOURCE( ' ', 'NONE', #62, .NOT_KNOWN. );
#131 = CLOSED_SHELL( '', ( #53, #57, #51, #37, #49, #43, #41, #55, #47, #39, #45, #59, #61 ) );
#132 = CARTESIAN_POINT( '', ( 0.000000000000000, 0.000000000000000, 0.000000000000000 ) );
#133 = DIRECTION( '', ( 0.000000000000000, 0.000000000000000, 1.00000000000000 ) );
#134 = DIRECTION( '', ( 1.00000000000000, 0.000000000000000, 0.000000000000000 ) );
#135 =  ( LENGTH_UNIT(  )NAMED_UNIT( #71 )SI_UNIT( .MILLI., .METRE. ) );
#136 = SURFACE_SIDE_STYLE( '', ( #187 ) );
#137 = EDGE_LOOP( '', ( #188 ) );
#138 = AXIS2_PLACEMENT_3D( '', #189, #190, #191 );
#139 = SURFACE_SIDE_STYLE( '', ( #192 ) );
#140 = EDGE_LOOP( '', ( #193 ) );
#141 = EDGE_LOOP( '', ( #194 ) );
#142 = AXIS2_PLACEMENT_3D( '', #195, #196, #197 );
#143 = SURFACE_SIDE_STYLE( '', ( #198 ) );
#144 = EDGE_LOOP( '', ( #199 ) );
#145 = EDGE_LOOP( '', ( #200 ) );
#146 = AXIS2_PLACEMENT_3D( '', #201, #202, #203 );
#147 = SURFACE_SIDE_STYLE( '', ( #204 ) );
#148 = EDGE_LOOP( '', ( #205 ) );
#149 = EDGE_LOOP( '', ( #206 ) );
#150 = AXIS2_PLACEMENT_3D( '', #207, #208, #209 );
#151 = SURFACE_SIDE_STYLE( '', ( #210 ) );
#152 = EDGE_LOOP( '', ( #211 ) );
#153 = EDGE_LOOP( '', ( #212 ) );
#154 = AXIS2_PLACEMENT_3D( '', #213, #214, #215 );
#155 = SURFACE_SIDE_STYLE( '', ( #216 ) );
#156 = EDGE_LOOP( '', ( #217 ) );
#157 = EDGE_LOOP( '', ( #218 ) );
#158 = AXIS2_PLACEMENT_3D( '', #219, #220, #221 );
#159 = SURFACE_SIDE_STYLE( '', ( #222 ) );
#160 = EDGE_LOOP( '', ( #223 ) );
#161 = EDGE_LOOP( '', ( #224 ) );
#162 = AXIS2_PLACEMENT_3D( '', #225, #226, #227 );
#163 = SURFACE_SIDE_STYLE( '', ( #228 ) );
#164 = EDGE_LOOP( '', ( #229 ) );
#165 = EDGE_LOOP( '', ( #230 ) );
#166 = AXIS2_PLACEMENT_3D( '', #231, #232, #233 );
#167 = SURFACE_SIDE_STYLE( '', ( #234 ) );
#168 = EDGE_LOOP( '', ( #235 ) );
#169 = EDGE_LOOP( '', ( #236 ) );
#170 = AXIS2_PLACEMENT_3D( '', #237, #238, #239 );
#171 = SURFACE_SIDE_STYLE( '', ( #240 ) );
#172 = EDGE_LOOP( '', ( #241 ) );
#173 = EDGE_LOOP( '', ( #242 ) );
#174 = AXIS2_PLACEMENT_3D( '', #243, #244, #245 );
#175 = SURFACE_SIDE_STYLE( '', ( #246 ) );
#176 = EDGE_LOOP( '', ( #247 ) );
#177 = AXIS2_PLACEMENT_3D( '', #248, #249, #250 );
#178 = SURFACE_SIDE_STYLE( '', ( #251 ) );
#179 = EDGE_LOOP( '', ( #252 ) );
#180 = EDGE_LOOP( '', ( #253 ) );
#181 = AXIS2_PLACEMENT_3D( '', #254, #255, #256 );
#182 = SURFACE_SIDE_STYLE( '', ( #257 ) );
#183 = EDGE_LOOP( '', ( #258 ) );
#184 = EDGE_LOOP( '', ( #259 ) );
#185 = AXIS2_PLACEMENT_3D( '', #260, #261, #262 );
#187 = SURFACE_STYLE_FILL_AREA( #263 );
#188 = ORIENTED_EDGE( '', *, *, #264, .F. );
#189 = CARTESIAN_POINT( '', ( 23.3333333333333, 0.000000000000000, 0.000000000000000 ) );
#190 = DIRECTION( '', ( 1.00000000000000, 0.000000000000000, -0.000000000000000 ) );
#191 = DIRECTION( '', ( -0.000000000000000, 0.000000000000000, -1.00000000000000 ) );
#192 = SURFACE_STYLE_FILL_AREA( #265 );
#193 = ORIENTED_EDGE( '', *, *, #266, .F. );
#194 = ORIENTED_EDGE( '', *, *, #267, .T. );
#195 = CARTESIAN_POINT( '', ( 23.3333333333333, 33.4800000000000, 0.000000000000000 ) );
#196 = DIRECTION( '', ( 1.00000000000000, 0.000000000000000, -0.000000000000000 ) );
#197 = DIRECTION( '', ( -0.000000000000000, 0.000000000000000, -1.00000000000000 ) );
#198 = SURFACE_STYLE_FILL_AREA( #268 );
#199 = ORIENTED_EDGE( '', *, *, #269, .F. );
#200 = ORIENTED_EDGE( '', *, *, #270, .T. );
#201 = CARTESIAN_POINT( '', ( 0.000000000000000, 25.7000000000000, 0.000000000000000 ) );
#202 = DIRECTION( '', ( 1.00000000000000, 0.000000000000000, -0.000000000000000 ) );
#203 = DIRECTION( '', ( -0.000000000000000, 0.000000000000000, -1.00000000000000 ) );
#204 = SURFACE_STYLE_FILL_AREA( #271 );
#205 = ORIENTED_EDGE( '', *, *, #270, .F. );
#206 = ORIENTED_EDGE( '', *, *, #272, .T. );
#207 = CARTESIAN_POINT( '', ( 50.0000000000000, 0.000000000000000, 0.000000000000000 ) );
#208 = DIRECTION( '', ( -1.00000000000000, -0.000000000000000, 0.000000000000000 ) );
#209 = DIRECTION( '', ( -0.000000000000000, 0.000000000000000, -1.00000000000000 ) );
#210 = SURFACE_STYLE_FILL_AREA( #273 );
#211 = ORIENTED_EDGE( '', *, *, #274, .F. );
#212 = ORIENTED_EDGE( '', *, *, #266, .T. );
#213 = CARTESIAN_POINT( '', ( 21.3533333333333, 0.000000000000000, 0.000000000000000 ) );
#214 = DIRECTION( '', ( 1.00000000000000, 0.000000000000000, -0.000000000000000 ) );
#215 = DIRECTION( '', ( -0.000000000000000, 0.000000000000000, -1.00000000000000 ) );
#216 = SURFACE_STYLE_FILL_AREA( #275 );
#217 = ORIENTED_EDGE( '', *, *, #267, .F. );
#218 = ORIENTED_EDGE( '', *, *, #276, .T. );
#219 = CARTESIAN_POINT( '', ( 21.3533333333333, 0.000000000000000, 0.000000000000000 ) );
#220 = DIRECTION( '', ( 1.00000000000000, 0.000000000000000, -0.000000000000000 ) );
#221 = DIRECTION( '', ( -0.000000000000000, 0.000000000000000, -1.00000000000000 ) );
#222 = SURFACE_STYLE_FILL_AREA( #277 );
#223 = ORIENTED_EDGE( '', *, *, #272, .F. );
#224 = ORIENTED_EDGE( '', *, *, #264, .T. );
#225 = CARTESIAN_POINT( '', ( 20.8333333333333, 0.000000000000000, 0.000000000000000 ) );
#226 = DIRECTION( '', ( 1.00000000000000, 0.000000000000000, -0.000000000000000 ) );
#227 = DIRECTION( '', ( -0.000000000000000, 0.000000000000000, -1.00000000000000 ) );
#228 = SURFACE_STYLE_FILL_AREA( #278 );
#229 = ORIENTED_EDGE( '', *, *, #279, .F. );
#230 = ORIENTED_EDGE( '', *, *, #280, .T. );
#231 = CARTESIAN_POINT( '', ( 50.0000000000000, 0.000000000000000, 0.000000000000000 ) );
#232 = DIRECTION( '', ( -1.00000000000000, -0.000000000000000, 0.000000000000000 ) );
#233 = DIRECTION( '', ( -0.000000000000000, 0.000000000000000, -1.00000000000000 ) );
#234 = SURFACE_STYLE_FILL_AREA( #281 );
#235 = ORIENTED_EDGE( '', *, *, #279, .T. );
#236 = ORIENTED_EDGE( '', *, *, #282, .F. );
#237 = CARTESIAN_POINT( '', ( 44.6000000000000, 0.000000000000000, 0.000000000000000 ) );
#238 = DIRECTION( '', ( 1.00000000000000, 0.000000000000000, -0.000000000000000 ) );
#239 = DIRECTION( '', ( -0.000000000000000, 0.000000000000000, -1.00000000000000 ) );
#240 = SURFACE_STYLE_FILL_AREA( #283 );
#241 = ORIENTED_EDGE( '', *, *, #276, .F. );
#242 = ORIENTED_EDGE( '', *, *, #269, .T. );
#243 = CARTESIAN_POINT( '', ( 50.0000000000000, 0.000000000000000, 0.000000000000000 ) );
#244 = DIRECTION( '', ( -1.00000000000000, -0.000000000000000, 0.000000000000000 ) );
#245 = DIRECTION( '', ( -0.000000000000000, 0.000000000000000, -1.00000000000000 ) );
#246 = SURFACE_STYLE_FILL_AREA( #284 );
#247 = ORIENTED_EDGE( '', *, *, #282, .T. );
#248 = CARTESIAN_POINT( '', ( 50.0000000000000, 39.6000000000000, 0.000000000000000 ) );
#249 = DIRECTION( '', ( -1.00000000000000, 0.000000000000000, 0.000000000000000 ) );
#250 = DIRECTION( '', ( 0.000000000000000, 0.000000000000000, 1.00000000000000 ) );
#251 = SURFACE_STYLE_FILL_AREA( #285 );
#252 = ORIENTED_EDGE( '', *, *, #286, .F. );
#253 = ORIENTED_EDGE( '', *, *, #274, .T. );
#254 = CARTESIAN_POINT( '', ( 50.0000000000000, 0.000000000000000, 0.000000000000000 ) );
#255 = DIRECTION( '', ( -1.00000000000000, -0.000000000000000, 0.000000000000000 ) );
#256 = DIRECTION( '', ( -0.000000000000000, 0.000000000000000, -1.00000000000000 ) );
#257 = SURFACE_STYLE_FILL_AREA( #287 );
#258 = ORIENTED_EDGE( '', *, *, #280, .F. );
#259 = ORIENTED_EDGE( '', *, *, #286, .T. );
#260 = CARTESIAN_POINT( '', ( 10.0000000000000, 39.6000000000000, 0.000000000000000 ) );
#261 = DIRECTION( '', ( 1.00000000000000, 0.000000000000000, -0.000000000000000 ) );
#262 = DIRECTION( '', ( -0.000000000000000, 0.000000000000000, -1.00000000000000 ) );
#263 = FILL_AREA_STYLE( '', ( #288 ) );
#264 = EDGE_CURVE( '', #289, #289, #290, .T. );
#265 = FILL_AREA_STYLE( '', ( #291 ) );
#266 = EDGE_CURVE( '', #292, #292, #293, .T. );
#267 = EDGE_CURVE( '', #294, #294, #295, .T. );
#268 = FILL_AREA_STYLE( '', ( #296 ) );
#269 = EDGE_CURVE( '', #297, #297, #298, .T. );
#270 = EDGE_CURVE( '', #299, #299, #300, .T. );
#271 = FILL_AREA_STYLE( '', ( #301 ) );
#272 = EDGE_CURVE( '', #302, #302, #303, .T. );
#273 = FILL_AREA_STYLE( '', ( #304 ) );
#274 = EDGE_CURVE( '', #305, #305, #306, .T. );
#275 = FILL_AREA_STYLE( '', ( #307 ) );
#276 = EDGE_CURVE( '', #308, #308, #309, .T. );
#277 = FILL_AREA_STYLE( '', ( #310 ) );
#278 = FILL_AREA_STYLE( '', ( #311 ) );
#279 = EDGE_CURVE( '', #312, #312, #313, .T. );
#280 = EDGE_CURVE( '', #314, #314, #315, .T. );
#281 = FILL_AREA_STYLE( '', ( #316 ) );
#282 = EDGE_CURVE( '', #317, #317, #318, .T. );
#283 = FILL_AREA_STYLE( '', ( #319 ) );
#284 = FILL_AREA_STYLE( '', ( #320 ) );
#285 = FILL_AREA_STYLE( '', ( #321 ) );
#286 = EDGE_CURVE( '', #322, #322, #323, .T. );
#287 = FILL_AREA_STYLE( '', ( #324 ) );
#288 = FILL_AREA_STYLE_COLOUR( '', #325 );
#289 = VERTEX_POINT( '', #326 );
#290 = CIRCLE( '', #327, 23.2000000000000 );
#291 = FILL_AREA_STYLE_COLOUR( '', #328 );
#292 = VERTEX_POINT( '', #329 );
#293 = CIRCLE( '', #330, 37.6200000000000 );
#294 = VERTEX_POINT( '', #331 );
#295 = CIRCLE( '', #332, 33.4800000000000 );
#296 = FILL_AREA_STYLE_COLOUR( '', #333 );
#297 = VERTEX_POINT( '', #334 );
#298 = CIRCLE( '', #335, 31.5000000000000 );
#299 = VERTEX_POINT( '', #336 );
#300 = CIRCLE( '', #337, 25.7000000000000 );
#301 = FILL_AREA_STYLE_COLOUR( '', #338 );
#302 = VERTEX_POINT( '', #339 );
#303 = CIRCLE( '', #340, 25.7000000000000 );
#304 = FILL_AREA_STYLE_COLOUR( '', #341 );
#305 = VERTEX_POINT( '', #342 );
#306 = CIRCLE( '', #343, 39.6000000000000 );
#307 = FILL_AREA_STYLE_COLOUR( '', #344 );
#308 = VERTEX_POINT( '', #345 );
#309 = CIRCLE( '', #346, 31.5000000000000 );
#310 = FILL_AREA_STYLE_COLOUR( '', #347 );
#311 = FILL_AREA_STYLE_COLOUR( '', #348 );
#312 = VERTEX_POINT( '', #349 );
#313 = CIRCLE( '', #350, 45.0000000000000 );
#314 = VERTEX_POINT( '', #351 );
#315 = CIRCLE( '', #352, 45.0000000000000 );
#316 = FILL_AREA_STYLE_COLOUR( '', #353 );
#317 = VERTEX_POINT( '', #354 );
#318 = CIRCLE( '', #355, 39.6000000000000 );
#319 = FILL_AREA_STYLE_COLOUR( '', #356 );
#320 = FILL_AREA_STYLE_COLOUR( '', #357 );
#321 = FILL_AREA_STYLE_COLOUR( '', #358 );
#322 = VERTEX_POINT( '', #359 );
#323 = CIRCLE( '', #360, 39.6000000000000 );
#324 = FILL_AREA_STYLE_COLOUR( '', #361 );
#325 = COLOUR_RGB( '', 0.713725507300000, 0.709803938900000, 0.650980413000000 );
#326 = CARTESIAN_POINT( '', ( 23.3333333333333, 0.000000000000000, -23.2000000000000 ) );
#327 = AXIS2_PLACEMENT_3D( '', #362, #363, #364 );
#328 = COLOUR_RGB( '', 0.713725507300000, 0.709803938900000, 0.650980413000000 );
#329 = CARTESIAN_POINT( '', ( 23.3333333333333, 0.000000000000000, -37.6200000000000 ) );
#330 = AXIS2_PLACEMENT_3D( '', #365, #366, #367 );
#331 = CARTESIAN_POINT( '', ( 23.3333333333333, 0.000000000000000, -33.4800000000000 ) );
#332 = AXIS2_PLACEMENT_3D( '', #368, #369, #370 );
#333 = COLOUR_RGB( '', 0.713725507300000, 0.709803938900000, 0.650980413000000 );
#334 = CARTESIAN_POINT( '', ( 0.000000000000000, 0.000000000000000, -31.5000000000000 ) );
#335 = AXIS2_PLACEMENT_3D( '', #371, #372, #373 );
#336 = CARTESIAN_POINT( '', ( 0.000000000000000, 0.000000000000000, -25.7000000000000 ) );
#337 = AXIS2_PLACEMENT_3D( '', #374, #375, #376 );
#338 = COLOUR_RGB( '', 0.713725507300000, 0.709803938900000, 0.650980413000000 );
#339 = CARTESIAN_POINT( '', ( 20.8333333333333, 0.000000000000000, -25.7000000000000 ) );
#340 = AXIS2_PLACEMENT_3D( '', #377, #378, #379 );
#341 = COLOUR_RGB( '', 0.713725507300000, 0.709803938900000, 0.650980413000000 );
#342 = CARTESIAN_POINT( '', ( 21.3533333333333, 0.000000000000000, -39.6000000000000 ) );
#343 = AXIS2_PLACEMENT_3D( '', #380, #381, #382 );
#344 = COLOUR_RGB( '', 0.713725507300000, 0.709803938900000, 0.650980413000000 );
#345 = CARTESIAN_POINT( '', ( 21.3533333333333, 0.000000000000000, -31.5000000000000 ) );
#346 = AXIS2_PLACEMENT_3D( '', #383, #384, #385 );
#347 = COLOUR_RGB( '', 0.713725507300000, 0.709803938900000, 0.650980413000000 );
#348 = COLOUR_RGB( '', 0.713725507300000, 0.709803938900000, 0.650980413000000 );
#349 = CARTESIAN_POINT( '', ( 44.6000000000000, 0.000000000000000, -45.0000000000000 ) );
#350 = AXIS2_PLACEMENT_3D( '', #386, #387, #388 );
#351 = CARTESIAN_POINT( '', ( 10.0000000000000, 0.000000000000000, -45.0000000000000 ) );
#352 = AXIS2_PLACEMENT_3D( '', #389, #390, #391 );
#353 = COLOUR_RGB( '', 0.713725507300000, 0.709803938900000, 0.650980413000000 );
#354 = CARTESIAN_POINT( '', ( 50.0000000000000, 0.000000000000000, -39.6000000000000 ) );
#355 = AXIS2_PLACEMENT_3D( '', #392, #393, #394 );
#356 = COLOUR_RGB( '', 0.713725507300000, 0.709803938900000, 0.650980413000000 );
#357 = COLOUR_RGB( '', 0.713725507300000, 0.709803938900000, 0.650980413000000 );
#358 = COLOUR_RGB( '', 0.713725507300000, 0.709803938900000, 0.650980413000000 );
#359 = CARTESIAN_POINT( '', ( 10.0000000000000, 0.000000000000000, -39.6000000000000 ) );
#360 = AXIS2_PLACEMENT_3D( '', #395, #396, #397 );
#361 = COLOUR_RGB( '', 0.713725507300000, 0.709803938900000, 0.650980413000000 );
#362 = CARTESIAN_POINT( '', ( 23.3333333333333, 0.000000000000000, 0.000000000000000 ) );
#363 = DIRECTION( '', ( 1.00000000000000, 0.000000000000000, -0.000000000000000 ) );
#364 = DIRECTION( '', ( -0.000000000000000, 0.000000000000000, -1.00000000000000 ) );
#365 = CARTESIAN_POINT( '', ( 23.3333333333333, 0.000000000000000, 0.000000000000000 ) );
#366 = DIRECTION( '', ( 1.00000000000000, 0.000000000000000, -0.000000000000000 ) );
#367 = DIRECTION( '', ( -0.000000000000000, 0.000000000000000, -1.00000000000000 ) );
#368 = CARTESIAN_POINT( '', ( 23.3333333333333, 0.000000000000000, 0.000000000000000 ) );
#369 = DIRECTION( '', ( 1.00000000000000, 0.000000000000000, -0.000000000000000 ) );
#370 = DIRECTION( '', ( -0.000000000000000, 0.000000000000000, -1.00000000000000 ) );
#371 = CARTESIAN_POINT( '', ( 0.000000000000000, 0.000000000000000, 0.000000000000000 ) );
#372 = DIRECTION( '', ( 1.00000000000000, 0.000000000000000, -0.000000000000000 ) );
#373 = DIRECTION( '', ( -0.000000000000000, 0.000000000000000, -1.00000000000000 ) );
#374 = CARTESIAN_POINT( '', ( 0.000000000000000, 0.000000000000000, 0.000000000000000 ) );
#375 = DIRECTION( '', ( 1.00000000000000, 0.000000000000000, -0.000000000000000 ) );
#376 = DIRECTION( '', ( -0.000000000000000, 0.000000000000000, -1.00000000000000 ) );
#377 = CARTESIAN_POINT( '', ( 20.8333333333333, 0.000000000000000, 0.000000000000000 ) );
#378 = DIRECTION( '', ( 1.00000000000000, 0.000000000000000, -0.000000000000000 ) );
#379 = DIRECTION( '', ( -0.000000000000000, 0.000000000000000, -1.00000000000000 ) );
#380 = CARTESIAN_POINT( '', ( 21.3533333333333, 0.000000000000000, 0.000000000000000 ) );
#381 = DIRECTION( '', ( 1.00000000000000, 0.000000000000000, -0.000000000000000 ) );
#382 = DIRECTION( '', ( -0.000000000000000, 0.000000000000000, -1.00000000000000 ) );
#383 = CARTESIAN_POINT( '', ( 21.3533333333333, 0.000000000000000, 0.000000000000000 ) );
#384 = DIRECTION( '', ( 1.00000000000000, 0.000000000000000, -0.000000000000000 ) );
#385 = DIRECTION( '', ( -0.000000000000000, 0.000000000000000, -1.00000000000000 ) );
#386 = CARTESIAN_POINT( '', ( 44.6000000000000, 0.000000000000000, 0.000000000000000 ) );
#387 = DIRECTION( '', ( 1.00000000000000, 0.000000000000000, -0.000000000000000 ) );
#388 = DIRECTION( '', ( -0.000000000000000, 0.000000000000000, -1.00000000000000 ) );
#389 = CARTESIAN_POINT( '', ( 10.0000000000000, 0.000000000000000, 0.000000000000000 ) );
#390 = DIRECTION( '', ( 1.00000000000000, 0.000000000000000, -0.000000000000000 ) );
#391 = DIRECTION( '', ( -0.000000000000000, 0.000000000000000, -1.00000000000000 ) );
#392 = CARTESIAN_POINT( '', ( 50.0000000000000, 0.000000000000000, 0.000000000000000 ) );
#393 = DIRECTION( '', ( 1.00000000000000, 0.000000000000000, -0.000000000000000 ) );
#394 = DIRECTION( '', ( -0.000000000000000, 0.000000000000000, -1.00000000000000 ) );
#395 = CARTESIAN_POINT( '', ( 10.0000000000000, 0.000000000000000, 0.000000000000000 ) );
#396 = DIRECTION( '', ( 1.00000000000000, 0.000000000000000, -0.000000000000000 ) );
#397 = DIRECTION( '', ( -0.000000000000000, 0.000000000000000, -1.00000000000000 ) );
ENDSEC;
END-ISO-10303-21;
