ISO-10303-21;
HEADER;
/* Generated by software containing ST-Developer
 * from STEP Tools, Inc. (www.steptools.com) 
 */

FILE_DESCRIPTION(
/* description */ (''),
/* implementation_level */ '2;1');

FILE_NAME(
/* name */ 
'Q:\\Ric010\\FF7\\FIPlastiCAD\\FIP\\Lavoro\\PVC Fittings\\PVC Fittings
 STEP\\CIV\\CIV075.ipt.stp',
/* time_stamp */ '2013-10-01T14:36:23+02:00',
/* author */ ('bfaro'),
/* organization */ (''),
/* preprocessor_version */ 'ST-DEVELOPER v15.2',
/* originating_system */ 'Autodesk Inventor 2014',
/* authorisation */ '');

FILE_SCHEMA (('AUTOMOTIVE_DESIGN { 1 0 10303 214 3 1 1 }'));
ENDSEC;

DATA;
#10=SHAPE_REPRESENTATION_RELATIONSHIP('SRR','None',#215,#11);
#11=ADVANCED_BREP_SHAPE_REPRESENTATION($,(#115),#206);
#12=STYLED_ITEM($,(#223),#115);
#13=PLANE($,#133);
#14=PLANE($,#134);
#15=PLANE($,#135);
#16=CYLINDRICAL_SURFACE($,#121,44.75);
#17=CYLINDRICAL_SURFACE($,#125,45.6);
#18=CYLINDRICAL_SURFACE($,#130,37.5);
#19=FACE_BOUND($,#42,.T.);
#20=FACE_BOUND($,#44,.T.);
#21=FACE_BOUND($,#46,.T.);
#22=FACE_BOUND($,#48,.T.);
#23=FACE_BOUND($,#50,.T.);
#24=FACE_BOUND($,#52,.T.);
#25=FACE_BOUND($,#54,.T.);
#26=FACE_BOUND($,#56,.T.);
#27=TOROIDAL_SURFACE($,#119,31.75,13.);
#28=TOROIDAL_SURFACE($,#123,45.2500000000001,0.500000000000176);
#29=TOROIDAL_SURFACE($,#128,43.6,2.);
#30=FACE_OUTER_BOUND($,#40,.T.);
#31=FACE_OUTER_BOUND($,#41,.T.);
#32=FACE_OUTER_BOUND($,#43,.T.);
#33=FACE_OUTER_BOUND($,#45,.T.);
#34=FACE_OUTER_BOUND($,#47,.T.);
#35=FACE_OUTER_BOUND($,#49,.T.);
#36=FACE_OUTER_BOUND($,#51,.T.);
#37=FACE_OUTER_BOUND($,#53,.T.);
#38=FACE_OUTER_BOUND($,#55,.T.);
#39=FACE_OUTER_BOUND($,#57,.T.);
#40=EDGE_LOOP($,(#85));
#41=EDGE_LOOP($,(#86));
#42=EDGE_LOOP($,(#87));
#43=EDGE_LOOP($,(#88));
#44=EDGE_LOOP($,(#89));
#45=EDGE_LOOP($,(#90));
#46=EDGE_LOOP($,(#91));
#47=EDGE_LOOP($,(#92));
#48=EDGE_LOOP($,(#93));
#49=EDGE_LOOP($,(#94));
#50=EDGE_LOOP($,(#95));
#51=EDGE_LOOP($,(#96));
#52=EDGE_LOOP($,(#97));
#53=EDGE_LOOP($,(#98));
#54=EDGE_LOOP($,(#99));
#55=EDGE_LOOP($,(#100));
#56=EDGE_LOOP($,(#101));
#57=EDGE_LOOP($,(#102));
#58=CIRCLE($,#118,34.2215568862272);
#59=CIRCLE($,#120,44.75);
#60=CIRCLE($,#122,44.75);
#61=CIRCLE($,#124,45.25);
#62=CIRCLE($,#126,45.6);
#63=CIRCLE($,#127,45.6);
#64=CIRCLE($,#129,43.6);
#65=CIRCLE($,#131,37.5);
#66=CIRCLE($,#132,37.5);
#67=VERTEX_POINT($,#178);
#68=VERTEX_POINT($,#181);
#69=VERTEX_POINT($,#184);
#70=VERTEX_POINT($,#187);
#71=VERTEX_POINT($,#190);
#72=VERTEX_POINT($,#192);
#73=VERTEX_POINT($,#195);
#74=VERTEX_POINT($,#198);
#75=VERTEX_POINT($,#200);
#76=EDGE_CURVE($,#67,#67,#58,.T.);
#77=EDGE_CURVE($,#68,#68,#59,.T.);
#78=EDGE_CURVE($,#69,#69,#60,.T.);
#79=EDGE_CURVE($,#70,#70,#61,.T.);
#80=EDGE_CURVE($,#71,#71,#62,.T.);
#81=EDGE_CURVE($,#72,#72,#63,.T.);
#82=EDGE_CURVE($,#73,#73,#64,.T.);
#83=EDGE_CURVE($,#74,#74,#65,.T.);
#84=EDGE_CURVE($,#75,#75,#66,.T.);
#85=ORIENTED_EDGE($,*,*,#76,.F.);
#86=ORIENTED_EDGE($,*,*,#76,.T.);
#87=ORIENTED_EDGE($,*,*,#77,.F.);
#88=ORIENTED_EDGE($,*,*,#77,.T.);
#89=ORIENTED_EDGE($,*,*,#78,.F.);
#90=ORIENTED_EDGE($,*,*,#79,.F.);
#91=ORIENTED_EDGE($,*,*,#78,.T.);
#92=ORIENTED_EDGE($,*,*,#80,.T.);
#93=ORIENTED_EDGE($,*,*,#81,.F.);
#94=ORIENTED_EDGE($,*,*,#81,.T.);
#95=ORIENTED_EDGE($,*,*,#82,.F.);
#96=ORIENTED_EDGE($,*,*,#83,.T.);
#97=ORIENTED_EDGE($,*,*,#84,.F.);
#98=ORIENTED_EDGE($,*,*,#80,.F.);
#99=ORIENTED_EDGE($,*,*,#79,.T.);
#100=ORIENTED_EDGE($,*,*,#82,.T.);
#101=ORIENTED_EDGE($,*,*,#83,.F.);
#102=ORIENTED_EDGE($,*,*,#84,.T.);
#103=SPHERICAL_SURFACE($,#117,180.);
#104=ADVANCED_FACE($,(#30),#103,.T.);
#105=ADVANCED_FACE($,(#31,#19),#27,.T.);
#106=ADVANCED_FACE($,(#32,#20),#16,.T.);
#107=ADVANCED_FACE($,(#33,#21),#28,.F.);
#108=ADVANCED_FACE($,(#34,#22),#17,.T.);
#109=ADVANCED_FACE($,(#35,#23),#29,.T.);
#110=ADVANCED_FACE($,(#36,#24),#18,.F.);
#111=ADVANCED_FACE($,(#37,#25),#13,.T.);
#112=ADVANCED_FACE($,(#38,#26),#14,.T.);
#113=ADVANCED_FACE($,(#39),#15,.T.);
#114=CLOSED_SHELL($,(#104,#105,#106,#107,#108,#109,#110,#111,#112,#113));
#115=MANIFOLD_SOLID_BREP('Solido1',#114);
#116=AXIS2_PLACEMENT_3D('placement',#176,#136,#137);
#117=AXIS2_PLACEMENT_3D($,#177,#138,#139);
#118=AXIS2_PLACEMENT_3D($,#179,#140,#141);
#119=AXIS2_PLACEMENT_3D($,#180,#142,#143);
#120=AXIS2_PLACEMENT_3D($,#182,#144,#145);
#121=AXIS2_PLACEMENT_3D($,#183,#146,#147);
#122=AXIS2_PLACEMENT_3D($,#185,#148,#149);
#123=AXIS2_PLACEMENT_3D($,#186,#150,#151);
#124=AXIS2_PLACEMENT_3D($,#188,#152,#153);
#125=AXIS2_PLACEMENT_3D($,#189,#154,#155);
#126=AXIS2_PLACEMENT_3D($,#191,#156,#157);
#127=AXIS2_PLACEMENT_3D($,#193,#158,#159);
#128=AXIS2_PLACEMENT_3D($,#194,#160,#161);
#129=AXIS2_PLACEMENT_3D($,#196,#162,#163);
#130=AXIS2_PLACEMENT_3D($,#197,#164,#165);
#131=AXIS2_PLACEMENT_3D($,#199,#166,#167);
#132=AXIS2_PLACEMENT_3D($,#201,#168,#169);
#133=AXIS2_PLACEMENT_3D($,#202,#170,#171);
#134=AXIS2_PLACEMENT_3D($,#203,#172,#173);
#135=AXIS2_PLACEMENT_3D($,#204,#174,#175);
#136=DIRECTION('axis',(0.,0.,1.));
#137=DIRECTION('refdir',(1.,0.,0.));
#138=DIRECTION('center_axis',(6.12323399573677E-017,0.,1.));
#139=DIRECTION('ref_axis',(1.,0.,0.));
#140=DIRECTION('center_axis',(0.,0.,-1.));
#141=DIRECTION('ref_axis',(-1.,0.,0.));
#142=DIRECTION('center_axis',(0.,0.,-1.));
#143=DIRECTION('ref_axis',(-1.,0.,0.));
#144=DIRECTION('center_axis',(0.,0.,-1.));
#145=DIRECTION('ref_axis',(-1.,0.,0.));
#146=DIRECTION('center_axis',(0.,0.,-1.));
#147=DIRECTION('ref_axis',(-1.,0.,0.));
#148=DIRECTION('center_axis',(0.,0.,-1.));
#149=DIRECTION('ref_axis',(-1.,0.,0.));
#150=DIRECTION('center_axis',(-3.01773037842208E-015,-2.64544030707869E-016,
-1.));
#151=DIRECTION('ref_axis',(-1.,0.,3.02854280815778E-015));
#152=DIRECTION('center_axis',(0.,0.,-1.));
#153=DIRECTION('ref_axis',(-1.,0.,0.));
#154=DIRECTION('center_axis',(0.,0.,-1.));
#155=DIRECTION('ref_axis',(-1.,0.,0.));
#156=DIRECTION('center_axis',(0.,0.,-1.));
#157=DIRECTION('ref_axis',(-1.,0.,0.));
#158=DIRECTION('center_axis',(0.,0.,-1.));
#159=DIRECTION('ref_axis',(-1.,0.,0.));
#160=DIRECTION('center_axis',(0.,0.,-1.));
#161=DIRECTION('ref_axis',(-1.,0.,0.));
#162=DIRECTION('center_axis',(0.,0.,-1.));
#163=DIRECTION('ref_axis',(-1.,0.,0.));
#164=DIRECTION('center_axis',(0.,0.,-1.));
#165=DIRECTION('ref_axis',(-1.,0.,0.));
#166=DIRECTION('center_axis',(0.,0.,-1.));
#167=DIRECTION('ref_axis',(-1.,0.,0.));
#168=DIRECTION('center_axis',(0.,0.,-1.));
#169=DIRECTION('ref_axis',(-1.,0.,0.));
#170=DIRECTION('center_axis',(0.,0.,1.));
#171=DIRECTION('ref_axis',(1.,0.,0.));
#172=DIRECTION('center_axis',(0.,0.,-1.));
#173=DIRECTION('ref_axis',(-1.,0.,0.));
#174=DIRECTION('center_axis',(0.,0.,-1.));
#175=DIRECTION('ref_axis',(-1.,0.,0.));
#176=CARTESIAN_POINT('',(0.,0.,0.));
#177=CARTESIAN_POINT('Origin',(0.,-2.68674E-014,-121.));
#178=CARTESIAN_POINT('',(-34.2215568862272,1.237165E-014,55.7169630915004));
#179=CARTESIAN_POINT('Origin',(0.,1.237165E-014,55.7169630915004));
#180=CARTESIAN_POINT('Origin',(0.,9.53772E-015,42.9540713126697));
#181=CARTESIAN_POINT('',(-5.480113E-015,-44.75,42.9540713126697));
#182=CARTESIAN_POINT('Origin',(0.,9.53772E-015,42.9540713126697));
#183=CARTESIAN_POINT('Origin',(0.,6.267661E-015,28.2270356563349));
#184=CARTESIAN_POINT('',(-5.480113E-015,-44.75,13.5));
#185=CARTESIAN_POINT('Origin',(0.,2.997602E-015,13.5));
#186=CARTESIAN_POINT('Origin',(-3.66373598126302E-013,-2.86576318231369E-014,
13.5000000000002));
#187=CARTESIAN_POINT('',(45.25,6.3490460919434E-014,13.));
#188=CARTESIAN_POINT('Origin',(0.,2.88658E-015,13.));
#189=CARTESIAN_POINT('Origin',(0.,1.665335E-015,7.5));
#190=CARTESIAN_POINT('',(45.6,-2.697625E-015,13.));
#191=CARTESIAN_POINT('Origin',(0.,2.88658E-015,13.));
#192=CARTESIAN_POINT('',(-5.584205E-015,-45.6,2.00000000000001));
#193=CARTESIAN_POINT('Origin',(0.,4.440892E-016,2.));
#194=CARTESIAN_POINT('Origin',(0.,4.440892E-016,2.));
#195=CARTESIAN_POINT('',(43.6,-4.89519450266557E-015,0.));
#196=CARTESIAN_POINT('Origin',(0.,0.,0.));
#197=CARTESIAN_POINT('Origin',(8.88178419700125E-015,4.940492E-015,22.25));
#198=CARTESIAN_POINT('',(37.5,-4.592274E-015,0.));
#199=CARTESIAN_POINT('Origin',(0.,0.,0.));
#200=CARTESIAN_POINT('',(37.5,5.288711E-015,44.5));
#201=CARTESIAN_POINT('Origin',(0.,9.880985E-015,44.5));
#202=CARTESIAN_POINT('Origin',(-45.425,2.88658E-015,13.));
#203=CARTESIAN_POINT('Origin',(-40.55,0.,0.));
#204=CARTESIAN_POINT('Origin',(-18.75,9.880985E-015,44.5));
#205=UNCERTAINTY_MEASURE_WITH_UNIT(LENGTH_MEASURE(0.01),#207,
'DISTANCE_ACCURACY_VALUE',
'Maximum model space distance between geometric entities at asserted c
onnectivities');
#206=(
GEOMETRIC_REPRESENTATION_CONTEXT(3)
GLOBAL_UNCERTAINTY_ASSIGNED_CONTEXT((#205))
GLOBAL_UNIT_ASSIGNED_CONTEXT((#207,#210,#208))
REPRESENTATION_CONTEXT('','3D')
);
#207=(
LENGTH_UNIT()
NAMED_UNIT(*)
SI_UNIT(.MILLI.,.METRE.)
);
#208=(
NAMED_UNIT(*)
SI_UNIT($,.STERADIAN.)
SOLID_ANGLE_UNIT()
);
#209=DIMENSIONAL_EXPONENTS(0.,0.,0.,0.,0.,0.,0.);
#210=(
CONVERSION_BASED_UNIT('degree',#212)
NAMED_UNIT(#209)
PLANE_ANGLE_UNIT()
);
#211=(
NAMED_UNIT(*)
PLANE_ANGLE_UNIT()
SI_UNIT($,.RADIAN.)
);
#212=PLANE_ANGLE_MEASURE_WITH_UNIT(PLANE_ANGLE_MEASURE(0.01745329252),#211);
#213=SHAPE_DEFINITION_REPRESENTATION(#214,#215);
#214=PRODUCT_DEFINITION_SHAPE('',$,#217);
#215=SHAPE_REPRESENTATION('',(#116),#206);
#216=PRODUCT_DEFINITION_CONTEXT('3D Mechanical Parts',#220,'design');
#217=PRODUCT_DEFINITION('CIV075','CIV075',#218,#216);
#218=PRODUCT_DEFINITION_FORMATION('',$,#222);
#219=APPLICATION_PROTOCOL_DEFINITION('international standard',
'automotive_design',2009,#220);
#220=APPLICATION_CONTEXT(
'Core Data for Automotive Mechanical Design Process');
#221=PRODUCT_CONTEXT('3D Mechanical Parts',#220,'mechanical');
#222=PRODUCT('CIV075','CIV075',$,(#221));
#223=PRESENTATION_STYLE_ASSIGNMENT((#224));
#224=SURFACE_STYLE_USAGE(.BOTH.,#225);
#225=SURFACE_SIDE_STYLE($,(#226));
#226=SURFACE_STYLE_FILL_AREA(#227);
#227=FILL_AREA_STYLE($,(#228));
#228=FILL_AREA_STYLE_COLOUR($,#229);
#229=COLOUR_RGB('',0.509803921568627,0.509803921568627,0.588235294117647);
ENDSEC;
END-ISO-10303-21;
