ISO-10303-21;
HEADER;
/* Generated by software containing ST-Developer
 * from STEP Tools, Inc. (www.steptools.com) 
 */

FILE_DESCRIPTION(
/* description */ (''),
/* implementation_level */ '2;1');

FILE_NAME(
/* name */ 'C:\\Users\\Gabriele\\Desktop\\catalogo\\BE30\\BE300750.stp',

/* time_stamp */ '2016-10-17T14:45:40+02:00',
/* author */ ('Gabriele'),
/* organization */ (''),
/* preprocessor_version */ 'ST-DEVELOPER v16.5',
/* originating_system */ 'Autodesk Inventor 2017',
/* authorisation */ '');

FILE_SCHEMA (('AUTOMOTIVE_DESIGN { 1 0 10303 214 3 1 1 }'));
ENDSEC;

DATA;
#10=MECHANICAL_DESIGN_GEOMETRIC_PRESENTATION_REPRESENTATION('',(#13),#507);
#11=SHAPE_REPRESENTATION_RELATIONSHIP('SRR','None',#516,#12);
#12=ADVANCED_BREP_SHAPE_REPRESENTATION('',(#14),#506);
#13=STYLED_ITEM('',(#525),#14);
#14=MANIFOLD_SOLID_BREP('Solido1',#213);
#15=B_SPLINE_CURVE_WITH_KNOTS('',3,(#330,#331,#332,#333,#334,#335,#336,
#337,#338,#339,#340,#341,#342,#343,#344,#345,#346,#347,#348,#349,#350,#351,
#352,#353,#354,#355,#356,#357,#358,#359,#360,#361,#362,#363,#364,#365,#366,
#367,#368,#369,#370,#371,#372,#373,#374,#375,#376,#377,#378,#379,#380,#381,
#382,#383,#384,#385,#386,#387,#388,#389,#390,#391,#392,#393,#394,#395),
 .UNSPECIFIED.,.T.,.F.,(4,2,2,2,2,2,2,2,2,2,2,2,2,2,2,2,2,2,2,2,2,2,2,2,
2,2,2,2,2,2,2,2,4),(0.,0.851549271684335,1.70309854336867,2.55465349174497,
3.40620844012126,4.25777233821883,5.10933623631639,5.960912160698,6.8124880850796,
7.66406958290734,8.51565108073507,9.36722896380397,10.2188068468729,11.070369616718,
11.9219323865631,12.7734756026257,13.6250188186884,14.476562034751,15.3281052508136,
16.1796680206587,17.0312307905039,17.8828086735728,18.7343865566417,19.5859680544694,
20.4375495522971,21.2891254766787,22.1407014010603,22.9922652991579,23.8438291972555,
24.6953841456318,25.5469390940081,26.3984883656924,27.2500376373767),
 .UNSPECIFIED.);
#16=B_SPLINE_CURVE_WITH_KNOTS('',3,(#406,#407,#408,#409,#410,#411,#412,
#413,#414,#415,#416,#417,#418,#419,#420,#421,#422,#423,#424,#425,#426,#427,
#428,#429,#430,#431,#432,#433,#434,#435,#436,#437,#438,#439,#440,#441,#442,
#443,#444,#445,#446,#447,#448,#449,#450,#451,#452,#453,#454,#455,#456,#457,
#458,#459,#460,#461,#462,#463,#464,#465,#466,#467,#468,#469,#470,#471),
 .UNSPECIFIED.,.T.,.F.,(4,2,2,2,2,2,2,2,2,2,2,2,2,2,2,2,2,2,2,2,2,2,2,2,
2,2,2,2,2,2,2,2,4),(0.,0.851549271684336,1.70309854336867,2.55465349174497,
3.40620844012126,4.25777233821883,5.1093362363164,5.960912160698,6.8124880850796,
7.66406958290734,8.51565108073508,9.36722896380397,10.2188068468729,11.070369616718,
11.9219323865631,12.7734756026257,13.6250188186884,14.476562034751,15.3281052508136,
16.1796680206588,17.0312307905039,17.8828086735728,18.7343865566417,19.5859680544694,
20.4375495522971,21.2891254766787,22.1407014010603,22.9922652991579,23.8438291972555,
24.6953841456318,25.5469390940081,26.3984883656924,27.2500376373767),
 .UNSPECIFIED.);
#17=PLANE('',#220);
#18=PLANE('',#226);
#19=PLANE('',#230);
#20=PLANE('',#237);
#21=PLANE('',#246);
#22=PLANE('',#247);
#23=CYLINDRICAL_SURFACE('',#218,47.);
#24=CYLINDRICAL_SURFACE('',#224,47.);
#25=CYLINDRICAL_SURFACE('',#232,37.5);
#26=CYLINDRICAL_SURFACE('',#239,37.5);
#27=FACE_BOUND('',#64,.T.);
#28=FACE_BOUND('',#66,.T.);
#29=FACE_BOUND('',#68,.T.);
#30=FACE_BOUND('',#70,.T.);
#31=FACE_BOUND('',#72,.T.);
#32=FACE_BOUND('',#74,.T.);
#33=FACE_BOUND('',#76,.T.);
#34=FACE_BOUND('',#78,.T.);
#35=FACE_BOUND('',#80,.T.);
#36=FACE_BOUND('',#82,.T.);
#37=FACE_BOUND('',#84,.T.);
#38=FACE_BOUND('',#86,.T.);
#39=FACE_BOUND('',#88,.T.);
#40=FACE_BOUND('',#90,.T.);
#41=FACE_BOUND('',#92,.T.);
#42=FACE_BOUND('',#94,.T.);
#43=FACE_BOUND('',#96,.T.);
#44=FACE_BOUND('',#98,.T.);
#45=FACE_OUTER_BOUND('',#63,.T.);
#46=FACE_OUTER_BOUND('',#65,.T.);
#47=FACE_OUTER_BOUND('',#67,.T.);
#48=FACE_OUTER_BOUND('',#69,.T.);
#49=FACE_OUTER_BOUND('',#71,.T.);
#50=FACE_OUTER_BOUND('',#73,.T.);
#51=FACE_OUTER_BOUND('',#75,.T.);
#52=FACE_OUTER_BOUND('',#77,.T.);
#53=FACE_OUTER_BOUND('',#79,.T.);
#54=FACE_OUTER_BOUND('',#81,.T.);
#55=FACE_OUTER_BOUND('',#83,.T.);
#56=FACE_OUTER_BOUND('',#85,.T.);
#57=FACE_OUTER_BOUND('',#87,.T.);
#58=FACE_OUTER_BOUND('',#89,.T.);
#59=FACE_OUTER_BOUND('',#91,.T.);
#60=FACE_OUTER_BOUND('',#93,.T.);
#61=FACE_OUTER_BOUND('',#95,.T.);
#62=FACE_OUTER_BOUND('',#97,.T.);
#63=EDGE_LOOP('',(#151));
#64=EDGE_LOOP('',(#152));
#65=EDGE_LOOP('',(#153));
#66=EDGE_LOOP('',(#154));
#67=EDGE_LOOP('',(#155));
#68=EDGE_LOOP('',(#156));
#69=EDGE_LOOP('',(#157));
#70=EDGE_LOOP('',(#158));
#71=EDGE_LOOP('',(#159));
#72=EDGE_LOOP('',(#160));
#73=EDGE_LOOP('',(#161));
#74=EDGE_LOOP('',(#162));
#75=EDGE_LOOP('',(#163));
#76=EDGE_LOOP('',(#164));
#77=EDGE_LOOP('',(#165));
#78=EDGE_LOOP('',(#166));
#79=EDGE_LOOP('',(#167));
#80=EDGE_LOOP('',(#168));
#81=EDGE_LOOP('',(#169));
#82=EDGE_LOOP('',(#170));
#83=EDGE_LOOP('',(#171));
#84=EDGE_LOOP('',(#172));
#85=EDGE_LOOP('',(#173));
#86=EDGE_LOOP('',(#174));
#87=EDGE_LOOP('',(#175));
#88=EDGE_LOOP('',(#176));
#89=EDGE_LOOP('',(#177));
#90=EDGE_LOOP('',(#178));
#91=EDGE_LOOP('',(#179));
#92=EDGE_LOOP('',(#180));
#93=EDGE_LOOP('',(#181));
#94=EDGE_LOOP('',(#182));
#95=EDGE_LOOP('',(#183));
#96=EDGE_LOOP('',(#184));
#97=EDGE_LOOP('',(#185));
#98=EDGE_LOOP('',(#186));
#99=CIRCLE('',#216,47.);
#100=CIRCLE('',#217,46.5);
#101=CIRCLE('',#219,47.);
#102=CIRCLE('',#222,46.5);
#103=CIRCLE('',#223,47.);
#104=CIRCLE('',#225,47.);
#105=CIRCLE('',#228,37.5);
#106=CIRCLE('',#229,38.);
#107=CIRCLE('',#231,46.5);
#108=CIRCLE('',#233,37.5);
#109=CIRCLE('',#235,37.5);
#110=CIRCLE('',#236,38.);
#111=CIRCLE('',#238,46.5);
#112=CIRCLE('',#240,37.5);
#113=CIRCLE('',#244,36.5);
#114=CIRCLE('',#245,36.5);
#115=VERTEX_POINT('',#321);
#116=VERTEX_POINT('',#323);
#117=VERTEX_POINT('',#326);
#118=VERTEX_POINT('',#329);
#119=VERTEX_POINT('',#397);
#120=VERTEX_POINT('',#399);
#121=VERTEX_POINT('',#402);
#122=VERTEX_POINT('',#405);
#123=VERTEX_POINT('',#473);
#124=VERTEX_POINT('',#475);
#125=VERTEX_POINT('',#478);
#126=VERTEX_POINT('',#481);
#127=VERTEX_POINT('',#484);
#128=VERTEX_POINT('',#486);
#129=VERTEX_POINT('',#489);
#130=VERTEX_POINT('',#492);
#131=VERTEX_POINT('',#497);
#132=VERTEX_POINT('',#499);
#133=EDGE_CURVE('',#115,#115,#99,.T.);
#134=EDGE_CURVE('',#116,#116,#100,.T.);
#135=EDGE_CURVE('',#117,#117,#101,.T.);
#136=EDGE_CURVE('',#118,#118,#15,.T.);
#137=EDGE_CURVE('',#119,#119,#102,.T.);
#138=EDGE_CURVE('',#120,#120,#103,.T.);
#139=EDGE_CURVE('',#121,#121,#104,.T.);
#140=EDGE_CURVE('',#122,#122,#16,.T.);
#141=EDGE_CURVE('',#123,#123,#105,.T.);
#142=EDGE_CURVE('',#124,#124,#106,.T.);
#143=EDGE_CURVE('',#125,#125,#107,.T.);
#144=EDGE_CURVE('',#126,#126,#108,.T.);
#145=EDGE_CURVE('',#127,#127,#109,.T.);
#146=EDGE_CURVE('',#128,#128,#110,.T.);
#147=EDGE_CURVE('',#129,#129,#111,.T.);
#148=EDGE_CURVE('',#130,#130,#112,.T.);
#149=EDGE_CURVE('',#131,#131,#113,.T.);
#150=EDGE_CURVE('',#132,#132,#114,.T.);
#151=ORIENTED_EDGE('',*,*,#133,.T.);
#152=ORIENTED_EDGE('',*,*,#134,.T.);
#153=ORIENTED_EDGE('',*,*,#135,.F.);
#154=ORIENTED_EDGE('',*,*,#133,.F.);
#155=ORIENTED_EDGE('',*,*,#134,.F.);
#156=ORIENTED_EDGE('',*,*,#136,.F.);
#157=ORIENTED_EDGE('',*,*,#137,.T.);
#158=ORIENTED_EDGE('',*,*,#138,.T.);
#159=ORIENTED_EDGE('',*,*,#139,.F.);
#160=ORIENTED_EDGE('',*,*,#138,.F.);
#161=ORIENTED_EDGE('',*,*,#137,.F.);
#162=ORIENTED_EDGE('',*,*,#140,.F.);
#163=ORIENTED_EDGE('',*,*,#141,.T.);
#164=ORIENTED_EDGE('',*,*,#142,.T.);
#165=ORIENTED_EDGE('',*,*,#143,.F.);
#166=ORIENTED_EDGE('',*,*,#142,.F.);
#167=ORIENTED_EDGE('',*,*,#144,.F.);
#168=ORIENTED_EDGE('',*,*,#141,.F.);
#169=ORIENTED_EDGE('',*,*,#145,.T.);
#170=ORIENTED_EDGE('',*,*,#146,.T.);
#171=ORIENTED_EDGE('',*,*,#147,.F.);
#172=ORIENTED_EDGE('',*,*,#146,.F.);
#173=ORIENTED_EDGE('',*,*,#148,.T.);
#174=ORIENTED_EDGE('',*,*,#145,.F.);
#175=ORIENTED_EDGE('',*,*,#147,.T.);
#176=ORIENTED_EDGE('',*,*,#135,.T.);
#177=ORIENTED_EDGE('',*,*,#139,.T.);
#178=ORIENTED_EDGE('',*,*,#143,.T.);
#179=ORIENTED_EDGE('',*,*,#149,.F.);
#180=ORIENTED_EDGE('',*,*,#150,.F.);
#181=ORIENTED_EDGE('',*,*,#144,.T.);
#182=ORIENTED_EDGE('',*,*,#150,.T.);
#183=ORIENTED_EDGE('',*,*,#148,.F.);
#184=ORIENTED_EDGE('',*,*,#149,.T.);
#185=ORIENTED_EDGE('',*,*,#140,.T.);
#186=ORIENTED_EDGE('',*,*,#136,.T.);
#187=TOROIDAL_SURFACE('',#215,46.5,0.5);
#188=TOROIDAL_SURFACE('',#221,46.5,0.5);
#189=TOROIDAL_SURFACE('',#227,38.,0.5);
#190=TOROIDAL_SURFACE('',#234,38.,0.5);
#191=TOROIDAL_SURFACE('',#241,46.5,0.5);
#192=TOROIDAL_SURFACE('',#242,46.5,0.5);
#193=TOROIDAL_SURFACE('',#243,150.,36.5);
#194=TOROIDAL_SURFACE('',#248,150.,46.);
#195=ADVANCED_FACE('',(#45,#27),#187,.T.);
#196=ADVANCED_FACE('',(#46,#28),#23,.T.);
#197=ADVANCED_FACE('',(#47,#29),#17,.T.);
#198=ADVANCED_FACE('',(#48,#30),#188,.T.);
#199=ADVANCED_FACE('',(#49,#31),#24,.T.);
#200=ADVANCED_FACE('',(#50,#32),#18,.F.);
#201=ADVANCED_FACE('',(#51,#33),#189,.T.);
#202=ADVANCED_FACE('',(#52,#34),#19,.T.);
#203=ADVANCED_FACE('',(#53,#35),#25,.F.);
#204=ADVANCED_FACE('',(#54,#36),#190,.T.);
#205=ADVANCED_FACE('',(#55,#37),#20,.F.);
#206=ADVANCED_FACE('',(#56,#38),#26,.F.);
#207=ADVANCED_FACE('',(#57,#39),#191,.T.);
#208=ADVANCED_FACE('',(#58,#40),#192,.T.);
#209=ADVANCED_FACE('',(#59,#41),#193,.F.);
#210=ADVANCED_FACE('',(#60,#42),#21,.T.);
#211=ADVANCED_FACE('',(#61,#43),#22,.F.);
#212=ADVANCED_FACE('',(#62,#44),#194,.T.);
#213=CLOSED_SHELL('',(#195,#196,#197,#198,#199,#200,#201,#202,#203,#204,
#205,#206,#207,#208,#209,#210,#211,#212));
#214=AXIS2_PLACEMENT_3D('placement',#319,#249,#250);
#215=AXIS2_PLACEMENT_3D('',#320,#251,#252);
#216=AXIS2_PLACEMENT_3D('',#322,#253,#254);
#217=AXIS2_PLACEMENT_3D('',#324,#255,#256);
#218=AXIS2_PLACEMENT_3D('',#325,#257,#258);
#219=AXIS2_PLACEMENT_3D('',#327,#259,#260);
#220=AXIS2_PLACEMENT_3D('',#328,#261,#262);
#221=AXIS2_PLACEMENT_3D('',#396,#263,#264);
#222=AXIS2_PLACEMENT_3D('',#398,#265,#266);
#223=AXIS2_PLACEMENT_3D('',#400,#267,#268);
#224=AXIS2_PLACEMENT_3D('',#401,#269,#270);
#225=AXIS2_PLACEMENT_3D('',#403,#271,#272);
#226=AXIS2_PLACEMENT_3D('',#404,#273,#274);
#227=AXIS2_PLACEMENT_3D('',#472,#275,#276);
#228=AXIS2_PLACEMENT_3D('',#474,#277,#278);
#229=AXIS2_PLACEMENT_3D('',#476,#279,#280);
#230=AXIS2_PLACEMENT_3D('',#477,#281,#282);
#231=AXIS2_PLACEMENT_3D('',#479,#283,#284);
#232=AXIS2_PLACEMENT_3D('',#480,#285,#286);
#233=AXIS2_PLACEMENT_3D('',#482,#287,#288);
#234=AXIS2_PLACEMENT_3D('',#483,#289,#290);
#235=AXIS2_PLACEMENT_3D('',#485,#291,#292);
#236=AXIS2_PLACEMENT_3D('',#487,#293,#294);
#237=AXIS2_PLACEMENT_3D('',#488,#295,#296);
#238=AXIS2_PLACEMENT_3D('',#490,#297,#298);
#239=AXIS2_PLACEMENT_3D('',#491,#299,#300);
#240=AXIS2_PLACEMENT_3D('',#493,#301,#302);
#241=AXIS2_PLACEMENT_3D('',#494,#303,#304);
#242=AXIS2_PLACEMENT_3D('',#495,#305,#306);
#243=AXIS2_PLACEMENT_3D('',#496,#307,#308);
#244=AXIS2_PLACEMENT_3D('',#498,#309,#310);
#245=AXIS2_PLACEMENT_3D('',#500,#311,#312);
#246=AXIS2_PLACEMENT_3D('',#501,#313,#314);
#247=AXIS2_PLACEMENT_3D('',#502,#315,#316);
#248=AXIS2_PLACEMENT_3D('',#503,#317,#318);
#249=DIRECTION('axis',(0.,0.,1.));
#250=DIRECTION('refdir',(1.,0.,0.));
#251=DIRECTION('center_axis',(0.,0.,1.));
#252=DIRECTION('ref_axis',(1.,0.,0.));
#253=DIRECTION('center_axis',(0.,0.,1.));
#254=DIRECTION('ref_axis',(1.,0.,0.));
#255=DIRECTION('center_axis',(0.,0.,-1.));
#256=DIRECTION('ref_axis',(1.,0.,0.));
#257=DIRECTION('center_axis',(0.,0.,1.));
#258=DIRECTION('ref_axis',(1.,0.,0.));
#259=DIRECTION('center_axis',(0.,0.,-1.));
#260=DIRECTION('ref_axis',(1.,0.,0.));
#261=DIRECTION('center_axis',(0.,0.,1.));
#262=DIRECTION('ref_axis',(1.,0.,0.));
#263=DIRECTION('center_axis',(-1.,0.,-2.22044604925031E-16));
#264=DIRECTION('ref_axis',(0.,0.,1.));
#265=DIRECTION('center_axis',(-1.,0.,-2.22044604925031E-16));
#266=DIRECTION('ref_axis',(-2.22044604925031E-16,0.,1.));
#267=DIRECTION('center_axis',(1.,0.,2.22044604925031E-16));
#268=DIRECTION('ref_axis',(-2.21454060762997E-16,0.,1.));
#269=DIRECTION('center_axis',(-1.,0.,-2.22044604925031E-16));
#270=DIRECTION('ref_axis',(-2.22044604925031E-16,0.,1.));
#271=DIRECTION('center_axis',(-1.,0.,6.12323399573677E-17));
#272=DIRECTION('ref_axis',(6.05307766085524E-17,0.,1.));
#273=DIRECTION('center_axis',(-1.,0.,-2.22044604925031E-16));
#274=DIRECTION('ref_axis',(0.,0.,1.));
#275=DIRECTION('center_axis',(1.,0.,-6.12323399573677E-17));
#276=DIRECTION('ref_axis',(0.,0.,-1.));
#277=DIRECTION('center_axis',(1.,0.,-6.12323399573677E-17));
#278=DIRECTION('ref_axis',(6.10622663543836E-17,0.,1.));
#279=DIRECTION('center_axis',(-1.,0.,6.12323399573677E-17));
#280=DIRECTION('ref_axis',(6.12323399573677E-17,0.,1.));
#281=DIRECTION('center_axis',(-1.,0.,6.12323399573677E-17));
#282=DIRECTION('ref_axis',(0.,0.,1.));
#283=DIRECTION('center_axis',(1.,0.,-6.12323399573677E-17));
#284=DIRECTION('ref_axis',(6.12323399573677E-17,0.,1.));
#285=DIRECTION('center_axis',(-1.,0.,-2.22044604925031E-16));
#286=DIRECTION('ref_axis',(-2.22044604925031E-16,0.,1.));
#287=DIRECTION('center_axis',(-1.,0.,-2.22044604925031E-16));
#288=DIRECTION('ref_axis',(-2.22044604925031E-16,0.,1.));
#289=DIRECTION('center_axis',(0.,0.,1.));
#290=DIRECTION('ref_axis',(1.,0.,0.));
#291=DIRECTION('center_axis',(0.,0.,1.));
#292=DIRECTION('ref_axis',(1.,0.,0.));
#293=DIRECTION('center_axis',(0.,0.,-1.));
#294=DIRECTION('ref_axis',(1.,0.,0.));
#295=DIRECTION('center_axis',(0.,0.,1.));
#296=DIRECTION('ref_axis',(1.,0.,0.));
#297=DIRECTION('center_axis',(0.,0.,1.));
#298=DIRECTION('ref_axis',(1.,0.,0.));
#299=DIRECTION('center_axis',(0.,0.,1.));
#300=DIRECTION('ref_axis',(1.,0.,0.));
#301=DIRECTION('center_axis',(0.,0.,1.));
#302=DIRECTION('ref_axis',(1.,0.,0.));
#303=DIRECTION('center_axis',(0.,0.,1.));
#304=DIRECTION('ref_axis',(1.,0.,0.));
#305=DIRECTION('center_axis',(-1.,0.,6.12323399573677E-17));
#306=DIRECTION('ref_axis',(0.,0.,1.));
#307=DIRECTION('center_axis',(0.,1.,0.));
#308=DIRECTION('ref_axis',(0.,0.,1.));
#309=DIRECTION('center_axis',(0.,0.,1.));
#310=DIRECTION('ref_axis',(-1.,0.,0.));
#311=DIRECTION('center_axis',(1.,0.,2.22044604925031E-16));
#312=DIRECTION('ref_axis',(-2.22044604925031E-16,0.,1.));
#313=DIRECTION('center_axis',(-1.,0.,-2.22044604925031E-16));
#314=DIRECTION('ref_axis',(0.,0.,1.));
#315=DIRECTION('center_axis',(0.,0.,1.));
#316=DIRECTION('ref_axis',(1.,0.,0.));
#317=DIRECTION('center_axis',(0.,-1.,0.));
#318=DIRECTION('ref_axis',(0.,0.,-1.));
#319=CARTESIAN_POINT('',(0.,0.,0.));
#320=CARTESIAN_POINT('Origin',(0.,0.,44.5));
#321=CARTESIAN_POINT('',(-47.,-5.75583995599256E-15,44.5));
#322=CARTESIAN_POINT('Origin',(0.,0.,44.5));
#323=CARTESIAN_POINT('',(-46.5,5.69460761603519E-15,45.));
#324=CARTESIAN_POINT('Origin',(0.,0.,45.));
#325=CARTESIAN_POINT('Origin',(0.,0.,0.));
#326=CARTESIAN_POINT('',(-47.,5.75583995599256E-15,0.5));
#327=CARTESIAN_POINT('Origin',(0.,0.,0.5));
#328=CARTESIAN_POINT('Origin',(5.51896351236179E-15,-6.29913772836968E-16,
45.));
#329=CARTESIAN_POINT('',(45.9974489629903,0.,45.));
#330=CARTESIAN_POINT('Ctrl Pts',(45.9974489629903,0.,45.));
#331=CARTESIAN_POINT('Ctrl Pts',(45.9974489629903,2.83849757228112,45.));
#332=CARTESIAN_POINT('Ctrl Pts',(45.7173934718226,5.9385041547672,45.));
#333=CARTESIAN_POINT('Ctrl Pts',(44.5097454685889,12.0097133202486,45.));
#334=CARTESIAN_POINT('Ctrl Pts',(43.5821530190057,14.9809159156726,45.));
#335=CARTESIAN_POINT('Ctrl Pts',(41.409640483184,20.2257875058188,45.));
#336=CARTESIAN_POINT('Ctrl Pts',(39.964564655102,22.9826619135077,45.));
#337=CARTESIAN_POINT('Ctrl Pts',(36.5254562520814,28.1296068153262,45.));
#338=CARTESIAN_POINT('Ctrl Pts',(34.5314238325385,30.5196774132889,45.));
#339=CARTESIAN_POINT('Ctrl Pts',(30.5171174960914,34.5339503134941,45.));
#340=CARTESIAN_POINT('Ctrl Pts',(28.1270034621117,36.5279812611137,45.));
#341=CARTESIAN_POINT('Ctrl Pts',(22.9799739156369,39.9670813072874,45.));
#342=CARTESIAN_POINT('Ctrl Pts',(20.2230585625897,41.4121506444744,45.));
#343=CARTESIAN_POINT('Ctrl Pts',(14.9780645601632,43.5846777628839,45.));
#344=CARTESIAN_POINT('Ctrl Pts',(12.006763701183,44.5122822328606,45.));
#345=CARTESIAN_POINT('Ctrl Pts',(5.9353579130226,45.7199431996115,45.));
#346=CARTESIAN_POINT('Ctrl Pts',(2.83525304423415,46.,45.));
#347=CARTESIAN_POINT('Ctrl Pts',(-2.84193836313031,46.,45.));
#348=CARTESIAN_POINT('Ctrl Pts',(-5.94206314107758,45.7199395203814,45.));
#349=CARTESIAN_POINT('Ctrl Pts',(-12.0135098186297,44.5122719956037,45.));
#350=CARTESIAN_POINT('Ctrl Pts',(-14.9848317459694,43.5846650898795,45.));
#351=CARTESIAN_POINT('Ctrl Pts',(-20.2298927923135,41.4121294680072,45.));
#352=CARTESIAN_POINT('Ctrl Pts',(-22.986859520306,39.9670476178715,45.));
#353=CARTESIAN_POINT('Ctrl Pts',(-28.133993695869,36.5279189218397,45.));
#354=CARTESIAN_POINT('Ctrl Pts',(-30.5241609687593,34.5338718145107,45.));
#355=CARTESIAN_POINT('Ctrl Pts',(-34.5385494478231,30.5195782608691,45.));
#356=CARTESIAN_POINT('Ctrl Pts',(-36.5326219738302,28.1295033989554,45.));
#357=CARTESIAN_POINT('Ctrl Pts',(-39.9718085283019,22.9825425394508,45.));
#358=CARTESIAN_POINT('Ctrl Pts',(-41.4169218983058,20.2256561018781,45.));
#359=CARTESIAN_POINT('Ctrl Pts',(-43.5894736533347,14.9807943859913,45.));
#360=CARTESIAN_POINT('Ctrl Pts',(-44.5170793865232,12.0096191153789,45.));
#361=CARTESIAN_POINT('Ctrl Pts',(-45.7247467022047,5.9384606636868,45.));
#362=CARTESIAN_POINT('Ctrl Pts',(-46.0048078034374,2.83847738687544,45.));
#363=CARTESIAN_POINT('Ctrl Pts',(-46.0048078034374,-2.83847738687543,45.));
#364=CARTESIAN_POINT('Ctrl Pts',(-45.7247467022047,-5.93846066368679,45.));
#365=CARTESIAN_POINT('Ctrl Pts',(-44.5170793865232,-12.0096191153789,45.));
#366=CARTESIAN_POINT('Ctrl Pts',(-43.5894736533347,-14.9807943859913,45.));
#367=CARTESIAN_POINT('Ctrl Pts',(-41.4169218983058,-20.225656101878,45.));
#368=CARTESIAN_POINT('Ctrl Pts',(-39.9718085283019,-22.9825425394507,45.));
#369=CARTESIAN_POINT('Ctrl Pts',(-36.5326219738302,-28.1295033989554,45.));
#370=CARTESIAN_POINT('Ctrl Pts',(-34.5385494478231,-30.5195782608691,45.));
#371=CARTESIAN_POINT('Ctrl Pts',(-30.5241609687594,-34.5338718145107,45.));
#372=CARTESIAN_POINT('Ctrl Pts',(-28.133993695869,-36.5279189218397,45.));
#373=CARTESIAN_POINT('Ctrl Pts',(-22.9868595203061,-39.9670476178714,45.));
#374=CARTESIAN_POINT('Ctrl Pts',(-20.2298927923135,-41.4121294680072,45.));
#375=CARTESIAN_POINT('Ctrl Pts',(-14.9848317459695,-43.5846650898795,45.));
#376=CARTESIAN_POINT('Ctrl Pts',(-12.0135098186297,-44.5122719956037,45.));
#377=CARTESIAN_POINT('Ctrl Pts',(-5.9420631410776,-45.7199395203814,45.));
#378=CARTESIAN_POINT('Ctrl Pts',(-2.84193836313032,-46.,45.));
#379=CARTESIAN_POINT('Ctrl Pts',(2.83525304423415,-46.,45.));
#380=CARTESIAN_POINT('Ctrl Pts',(5.93535791302259,-45.7199431996115,45.));
#381=CARTESIAN_POINT('Ctrl Pts',(12.006763701183,-44.5122822328606,45.));
#382=CARTESIAN_POINT('Ctrl Pts',(14.9780645601631,-43.5846777628839,45.));
#383=CARTESIAN_POINT('Ctrl Pts',(20.2230585625897,-41.4121506444744,45.));
#384=CARTESIAN_POINT('Ctrl Pts',(22.9799739156369,-39.9670813072874,45.));
#385=CARTESIAN_POINT('Ctrl Pts',(28.1270034621116,-36.5279812611137,45.));
#386=CARTESIAN_POINT('Ctrl Pts',(30.5171174960914,-34.5339503134941,45.));
#387=CARTESIAN_POINT('Ctrl Pts',(34.5314238325384,-30.5196774132889,45.));
#388=CARTESIAN_POINT('Ctrl Pts',(36.5254562520813,-28.1296068153262,45.));
#389=CARTESIAN_POINT('Ctrl Pts',(39.964564655102,-22.9826619135077,45.));
#390=CARTESIAN_POINT('Ctrl Pts',(41.409640483184,-20.2257875058189,45.));
#391=CARTESIAN_POINT('Ctrl Pts',(43.5821530190057,-14.9809159156726,45.));
#392=CARTESIAN_POINT('Ctrl Pts',(44.5097454685889,-12.0097133202486,45.));
#393=CARTESIAN_POINT('Ctrl Pts',(45.7173934718226,-5.93850415476721,45.));
#394=CARTESIAN_POINT('Ctrl Pts',(45.9974489629903,-2.83849757228113,45.));
#395=CARTESIAN_POINT('Ctrl Pts',(45.9974489629903,-1.66533453693773E-15,
45.));
#396=CARTESIAN_POINT('Origin',(-149.5,0.,194.));
#397=CARTESIAN_POINT('',(-149.,-5.69460761603519E-15,147.5));
#398=CARTESIAN_POINT('Origin',(-149.,0.,194.));
#399=CARTESIAN_POINT('',(-149.5,5.75583995599256E-15,147.));
#400=CARTESIAN_POINT('Origin',(-149.5,0.,194.));
#401=CARTESIAN_POINT('Origin',(-194.,0.,194.));
#402=CARTESIAN_POINT('',(-193.5,-5.75583995599256E-15,147.));
#403=CARTESIAN_POINT('Origin',(-193.5,0.,194.));
#404=CARTESIAN_POINT('Origin',(-149.,-6.29913772836968E-16,194.));
#405=CARTESIAN_POINT('',(-149.,1.66533453693773E-15,239.99744896299));
#406=CARTESIAN_POINT('Ctrl Pts',(-149.,1.66533453693773E-15,239.99744896299));
#407=CARTESIAN_POINT('Ctrl Pts',(-149.,-2.83849757228112,239.99744896299));
#408=CARTESIAN_POINT('Ctrl Pts',(-149.,-5.9385041547672,239.717393471823));
#409=CARTESIAN_POINT('Ctrl Pts',(-149.,-12.0097133202486,238.509745468589));
#410=CARTESIAN_POINT('Ctrl Pts',(-149.,-14.9809159156726,237.582153019006));
#411=CARTESIAN_POINT('Ctrl Pts',(-149.,-20.2257875058189,235.409640483184));
#412=CARTESIAN_POINT('Ctrl Pts',(-149.,-22.9826619135077,233.964564655102));
#413=CARTESIAN_POINT('Ctrl Pts',(-149.,-28.1296068153262,230.525456252081));
#414=CARTESIAN_POINT('Ctrl Pts',(-149.,-30.5196774132889,228.531423832538));
#415=CARTESIAN_POINT('Ctrl Pts',(-149.,-34.5339503134941,224.517117496091));
#416=CARTESIAN_POINT('Ctrl Pts',(-149.,-36.5279812611137,222.127003462112));
#417=CARTESIAN_POINT('Ctrl Pts',(-149.,-39.9670813072874,216.979973915637));
#418=CARTESIAN_POINT('Ctrl Pts',(-149.,-41.4121506444744,214.22305856259));
#419=CARTESIAN_POINT('Ctrl Pts',(-149.,-43.5846777628839,208.978064560163));
#420=CARTESIAN_POINT('Ctrl Pts',(-149.,-44.5122822328606,206.006763701183));
#421=CARTESIAN_POINT('Ctrl Pts',(-149.,-45.7199431996115,199.935357913023));
#422=CARTESIAN_POINT('Ctrl Pts',(-149.,-46.,196.835253044234));
#423=CARTESIAN_POINT('Ctrl Pts',(-149.,-46.,191.15806163687));
#424=CARTESIAN_POINT('Ctrl Pts',(-149.,-45.7199395203814,188.057936858922));
#425=CARTESIAN_POINT('Ctrl Pts',(-149.,-44.5122719956037,181.98649018137));
#426=CARTESIAN_POINT('Ctrl Pts',(-149.,-43.5846650898795,179.01516825403));
#427=CARTESIAN_POINT('Ctrl Pts',(-149.,-41.4121294680072,173.770107207686));
#428=CARTESIAN_POINT('Ctrl Pts',(-149.,-39.9670476178714,171.013140479694));
#429=CARTESIAN_POINT('Ctrl Pts',(-149.,-36.5279189218397,165.866006304131));
#430=CARTESIAN_POINT('Ctrl Pts',(-149.,-34.5338718145107,163.475839031241));
#431=CARTESIAN_POINT('Ctrl Pts',(-149.,-30.5195782608691,159.461450552177));
#432=CARTESIAN_POINT('Ctrl Pts',(-149.,-28.1295033989554,157.46737802617));
#433=CARTESIAN_POINT('Ctrl Pts',(-149.,-22.9825425394507,154.028191471698));
#434=CARTESIAN_POINT('Ctrl Pts',(-149.,-20.225656101878,152.583078101694));
#435=CARTESIAN_POINT('Ctrl Pts',(-149.,-14.9807943859913,150.410526346665));
#436=CARTESIAN_POINT('Ctrl Pts',(-149.,-12.0096191153789,149.482920613477));
#437=CARTESIAN_POINT('Ctrl Pts',(-149.,-5.9384606636868,148.275253297795));
#438=CARTESIAN_POINT('Ctrl Pts',(-149.,-2.83847738687543,147.995192196563));
#439=CARTESIAN_POINT('Ctrl Pts',(-149.,2.83847738687544,147.995192196563));
#440=CARTESIAN_POINT('Ctrl Pts',(-149.,5.93846066368681,148.275253297795));
#441=CARTESIAN_POINT('Ctrl Pts',(-149.,12.0096191153789,149.482920613477));
#442=CARTESIAN_POINT('Ctrl Pts',(-149.,14.9807943859913,150.410526346665));
#443=CARTESIAN_POINT('Ctrl Pts',(-149.,20.2256561018781,152.583078101694));
#444=CARTESIAN_POINT('Ctrl Pts',(-149.,22.9825425394508,154.028191471698));
#445=CARTESIAN_POINT('Ctrl Pts',(-149.,28.1295033989555,157.46737802617));
#446=CARTESIAN_POINT('Ctrl Pts',(-149.,30.5195782608691,159.461450552177));
#447=CARTESIAN_POINT('Ctrl Pts',(-149.,34.5338718145108,163.475839031241));
#448=CARTESIAN_POINT('Ctrl Pts',(-149.,36.5279189218397,165.866006304131));
#449=CARTESIAN_POINT('Ctrl Pts',(-149.,39.9670476178715,171.013140479694));
#450=CARTESIAN_POINT('Ctrl Pts',(-149.,41.4121294680072,173.770107207687));
#451=CARTESIAN_POINT('Ctrl Pts',(-149.,43.5846650898795,179.015168254031));
#452=CARTESIAN_POINT('Ctrl Pts',(-149.,44.5122719956037,181.98649018137));
#453=CARTESIAN_POINT('Ctrl Pts',(-149.,45.7199395203814,188.057936858922));
#454=CARTESIAN_POINT('Ctrl Pts',(-149.,46.,191.15806163687));
#455=CARTESIAN_POINT('Ctrl Pts',(-149.,46.,196.835253044234));
#456=CARTESIAN_POINT('Ctrl Pts',(-149.,45.7199431996115,199.935357913023));
#457=CARTESIAN_POINT('Ctrl Pts',(-149.,44.5122822328606,206.006763701183));
#458=CARTESIAN_POINT('Ctrl Pts',(-149.,43.5846777628839,208.978064560163));
#459=CARTESIAN_POINT('Ctrl Pts',(-149.,41.4121506444744,214.22305856259));
#460=CARTESIAN_POINT('Ctrl Pts',(-149.,39.9670813072874,216.979973915637));
#461=CARTESIAN_POINT('Ctrl Pts',(-149.,36.5279812611137,222.127003462112));
#462=CARTESIAN_POINT('Ctrl Pts',(-149.,34.5339503134941,224.517117496091));
#463=CARTESIAN_POINT('Ctrl Pts',(-149.,30.5196774132889,228.531423832538));
#464=CARTESIAN_POINT('Ctrl Pts',(-149.,28.1296068153261,230.525456252081));
#465=CARTESIAN_POINT('Ctrl Pts',(-149.,22.9826619135076,233.964564655102));
#466=CARTESIAN_POINT('Ctrl Pts',(-149.,20.2257875058188,235.409640483184));
#467=CARTESIAN_POINT('Ctrl Pts',(-149.,14.9809159156726,237.582153019006));
#468=CARTESIAN_POINT('Ctrl Pts',(-149.,12.0097133202486,238.509745468589));
#469=CARTESIAN_POINT('Ctrl Pts',(-149.,5.93850415476718,239.717393471823));
#470=CARTESIAN_POINT('Ctrl Pts',(-149.,2.83849757228111,239.99744896299));
#471=CARTESIAN_POINT('Ctrl Pts',(-149.,0.,239.99744896299));
#472=CARTESIAN_POINT('Origin',(-193.5,0.,194.));
#473=CARTESIAN_POINT('',(-193.5,4.59242549680258E-15,156.5));
#474=CARTESIAN_POINT('Origin',(-193.5,0.,194.));
#475=CARTESIAN_POINT('',(-194.,-4.65365783675994E-15,156.));
#476=CARTESIAN_POINT('Origin',(-194.,0.,194.));
#477=CARTESIAN_POINT('Origin',(-194.,0.,194.));
#478=CARTESIAN_POINT('',(-194.,5.69460761603519E-15,147.5));
#479=CARTESIAN_POINT('Origin',(-194.,0.,194.));
#480=CARTESIAN_POINT('Origin',(-194.,0.,194.));
#481=CARTESIAN_POINT('',(-150.,4.59242549680258E-15,156.5));
#482=CARTESIAN_POINT('Origin',(-150.,0.,194.));
#483=CARTESIAN_POINT('Origin',(0.,0.,0.5));
#484=CARTESIAN_POINT('',(-37.5,-4.59242549680258E-15,0.5));
#485=CARTESIAN_POINT('Origin',(0.,0.,0.5));
#486=CARTESIAN_POINT('',(-38.,4.65365783675994E-15,0.));
#487=CARTESIAN_POINT('Origin',(0.,0.,0.));
#488=CARTESIAN_POINT('Origin',(1.75666304068783E-15,0.,0.));
#489=CARTESIAN_POINT('',(-46.5,-5.69460761603519E-15,0.));
#490=CARTESIAN_POINT('Origin',(0.,0.,0.));
#491=CARTESIAN_POINT('Origin',(0.,0.,0.));
#492=CARTESIAN_POINT('',(-37.5,4.59242549680258E-15,44.));
#493=CARTESIAN_POINT('Origin',(0.,0.,44.));
#494=CARTESIAN_POINT('Origin',(0.,0.,0.5));
#495=CARTESIAN_POINT('Origin',(-193.5,0.,194.));
#496=CARTESIAN_POINT('Origin',(-150.,0.,44.));
#497=CARTESIAN_POINT('',(36.5,4.46996081688784E-15,44.));
#498=CARTESIAN_POINT('Origin',(0.,0.,44.));
#499=CARTESIAN_POINT('',(-150.,4.46996081688784E-15,230.5));
#500=CARTESIAN_POINT('Origin',(-150.,0.,194.));
#501=CARTESIAN_POINT('Origin',(-150.,-7.89491928622334E-16,194.));
#502=CARTESIAN_POINT('Origin',(3.54066983922288E-15,-7.89491928622334E-16,
44.));
#503=CARTESIAN_POINT('Origin',(-150.,0.,44.));
#504=UNCERTAINTY_MEASURE_WITH_UNIT(LENGTH_MEASURE(0.01),#508,
'DISTANCE_ACCURACY_VALUE',
'Maximum model space distance between geometric entities at asserted c
onnectivities');
#505=UNCERTAINTY_MEASURE_WITH_UNIT(LENGTH_MEASURE(1.E-6),#508,
'DISTANCE_ACCURACY_VALUE',
'Maximum model space distance between geometric entities at asserted c
onnectivities');
#506=(
GEOMETRIC_REPRESENTATION_CONTEXT(3)
GLOBAL_UNCERTAINTY_ASSIGNED_CONTEXT((#504))
GLOBAL_UNIT_ASSIGNED_CONTEXT((#508,#511,#509))
REPRESENTATION_CONTEXT('','3D')
);
#507=(
GEOMETRIC_REPRESENTATION_CONTEXT(3)
GLOBAL_UNCERTAINTY_ASSIGNED_CONTEXT((#505))
GLOBAL_UNIT_ASSIGNED_CONTEXT((#508,#511,#509))
REPRESENTATION_CONTEXT('','3D')
);
#508=(
LENGTH_UNIT()
NAMED_UNIT(*)
SI_UNIT(.MILLI.,.METRE.)
);
#509=(
NAMED_UNIT(*)
SI_UNIT($,.STERADIAN.)
SOLID_ANGLE_UNIT()
);
#510=DIMENSIONAL_EXPONENTS(0.,0.,0.,0.,0.,0.,0.);
#511=(
CONVERSION_BASED_UNIT('degree',#513)
NAMED_UNIT(#510)
PLANE_ANGLE_UNIT()
);
#512=(
NAMED_UNIT(*)
PLANE_ANGLE_UNIT()
SI_UNIT($,.RADIAN.)
);
#513=PLANE_ANGLE_MEASURE_WITH_UNIT(PLANE_ANGLE_MEASURE(0.01745329252),#512);
#514=SHAPE_DEFINITION_REPRESENTATION(#515,#516);
#515=PRODUCT_DEFINITION_SHAPE('',$,#518);
#516=SHAPE_REPRESENTATION('',(#214),#506);
#517=PRODUCT_DEFINITION_CONTEXT('part definition',#522,'design');
#518=PRODUCT_DEFINITION('BE300750','BE30',#519,#517);
#519=PRODUCT_DEFINITION_FORMATION('',$,#524);
#520=PRODUCT_RELATED_PRODUCT_CATEGORY('BE30','BE30',(#524));
#521=APPLICATION_PROTOCOL_DEFINITION('international standard',
'automotive_design',2009,#522);
#522=APPLICATION_CONTEXT(
'Core Data for Automotive Mechanical Design Process');
#523=PRODUCT_CONTEXT('part definition',#522,'mechanical');
#524=PRODUCT('BE300750','BE30',$,(#523));
#525=PRESENTATION_STYLE_ASSIGNMENT((#526));
#526=SURFACE_STYLE_USAGE(.BOTH.,#527);
#527=SURFACE_SIDE_STYLE('',(#528));
#528=SURFACE_STYLE_FILL_AREA(#529);
#529=FILL_AREA_STYLE('',(#530));
#530=FILL_AREA_STYLE_COLOUR('',#531);
#531=COLOUR_RGB('',0.8,0.8,0.8);
ENDSEC;
END-ISO-10303-21;
