ISO-10303-21;
HEADER;
/* Generated by software containing ST-Developer
 * from STEP Tools, Inc. (www.steptools.com) 
 */

FILE_DESCRIPTION(
/* description */ (''),
/* implementation_level */ '2;1');

FILE_NAME(
/* name */ 'C:\\Users\\Gabriele\\Desktop\\catalogo\\TE40\\TE400400.stp',

/* time_stamp */ '2016-10-17T16:55:33+02:00',
/* author */ ('Gabriele'),
/* organization */ (''),
/* preprocessor_version */ 'ST-DEVELOPER v16.5',
/* originating_system */ 'Autodesk Inventor 2017',
/* authorisation */ '');

FILE_SCHEMA (('AUTOMOTIVE_DESIGN { 1 0 10303 214 3 1 1 }'));
ENDSEC;

DATA;
#10=MECHANICAL_DESIGN_GEOMETRIC_PRESENTATION_REPRESENTATION('',(#13),#377);
#11=SHAPE_REPRESENTATION_RELATIONSHIP('SRR','None',#386,#12);
#12=ADVANCED_BREP_SHAPE_REPRESENTATION('',(#14),#376);
#13=STYLED_ITEM('',(#395),#14);
#14=MANIFOLD_SOLID_BREP('Solido2',#210);
#15=ELLIPSE('',#234,27.5771644662754,19.5);
#16=ELLIPSE('',#235,27.5771644662754,19.5);
#17=ELLIPSE('',#244,36.0624458405139,25.5);
#18=ELLIPSE('',#245,36.0624458405139,25.5);
#19=PLANE('',#217);
#20=PLANE('',#224);
#21=PLANE('',#231);
#22=PLANE('',#237);
#23=PLANE('',#241);
#24=PLANE('',#242);
#25=CYLINDRICAL_SURFACE('',#215,20.);
#26=CYLINDRICAL_SURFACE('',#222,20.);
#27=CYLINDRICAL_SURFACE('',#229,20.);
#28=CYLINDRICAL_SURFACE('',#233,19.5);
#29=CYLINDRICAL_SURFACE('',#238,19.5);
#30=CYLINDRICAL_SURFACE('',#243,25.5);
#31=CYLINDRICAL_SURFACE('',#246,25.5);
#32=FACE_BOUND('',#67,.T.);
#33=FACE_BOUND('',#69,.T.);
#34=FACE_BOUND('',#71,.T.);
#35=FACE_BOUND('',#73,.T.);
#36=FACE_BOUND('',#75,.T.);
#37=FACE_BOUND('',#77,.T.);
#38=FACE_BOUND('',#79,.T.);
#39=FACE_BOUND('',#81,.T.);
#40=FACE_BOUND('',#83,.T.);
#41=FACE_BOUND('',#85,.T.);
#42=FACE_BOUND('',#87,.T.);
#43=FACE_BOUND('',#89,.T.);
#44=FACE_BOUND('',#90,.T.);
#45=FACE_BOUND('',#92,.T.);
#46=FACE_BOUND('',#94,.T.);
#47=FACE_BOUND('',#96,.T.);
#48=FACE_BOUND('',#98,.T.);
#49=FACE_BOUND('',#99,.T.);
#50=FACE_OUTER_BOUND('',#66,.T.);
#51=FACE_OUTER_BOUND('',#68,.T.);
#52=FACE_OUTER_BOUND('',#70,.T.);
#53=FACE_OUTER_BOUND('',#72,.T.);
#54=FACE_OUTER_BOUND('',#74,.T.);
#55=FACE_OUTER_BOUND('',#76,.T.);
#56=FACE_OUTER_BOUND('',#78,.T.);
#57=FACE_OUTER_BOUND('',#80,.T.);
#58=FACE_OUTER_BOUND('',#82,.T.);
#59=FACE_OUTER_BOUND('',#84,.T.);
#60=FACE_OUTER_BOUND('',#86,.T.);
#61=FACE_OUTER_BOUND('',#88,.T.);
#62=FACE_OUTER_BOUND('',#91,.T.);
#63=FACE_OUTER_BOUND('',#93,.T.);
#64=FACE_OUTER_BOUND('',#95,.T.);
#65=FACE_OUTER_BOUND('',#97,.T.);
#66=EDGE_LOOP('',(#153));
#67=EDGE_LOOP('',(#154));
#68=EDGE_LOOP('',(#155));
#69=EDGE_LOOP('',(#156));
#70=EDGE_LOOP('',(#157));
#71=EDGE_LOOP('',(#158));
#72=EDGE_LOOP('',(#159));
#73=EDGE_LOOP('',(#160));
#74=EDGE_LOOP('',(#161));
#75=EDGE_LOOP('',(#162));
#76=EDGE_LOOP('',(#163));
#77=EDGE_LOOP('',(#164));
#78=EDGE_LOOP('',(#165));
#79=EDGE_LOOP('',(#166));
#80=EDGE_LOOP('',(#167));
#81=EDGE_LOOP('',(#168));
#82=EDGE_LOOP('',(#169));
#83=EDGE_LOOP('',(#170));
#84=EDGE_LOOP('',(#171,#172));
#85=EDGE_LOOP('',(#173));
#86=EDGE_LOOP('',(#174));
#87=EDGE_LOOP('',(#175));
#88=EDGE_LOOP('',(#176));
#89=EDGE_LOOP('',(#177,#178));
#90=EDGE_LOOP('',(#179));
#91=EDGE_LOOP('',(#180));
#92=EDGE_LOOP('',(#181));
#93=EDGE_LOOP('',(#182));
#94=EDGE_LOOP('',(#183));
#95=EDGE_LOOP('',(#184,#185));
#96=EDGE_LOOP('',(#186));
#97=EDGE_LOOP('',(#187));
#98=EDGE_LOOP('',(#188,#189));
#99=EDGE_LOOP('',(#190));
#100=CIRCLE('',#213,20.);
#101=CIRCLE('',#214,20.5);
#102=CIRCLE('',#216,20.);
#103=CIRCLE('',#218,25.5);
#104=CIRCLE('',#220,20.);
#105=CIRCLE('',#221,20.5);
#106=CIRCLE('',#223,20.);
#107=CIRCLE('',#225,25.5);
#108=CIRCLE('',#227,20.);
#109=CIRCLE('',#228,20.5);
#110=CIRCLE('',#230,20.);
#111=CIRCLE('',#232,25.5);
#112=CIRCLE('',#236,19.5);
#113=CIRCLE('',#239,19.5);
#114=CIRCLE('',#240,19.5);
#115=VERTEX_POINT('',#321);
#116=VERTEX_POINT('',#323);
#117=VERTEX_POINT('',#326);
#118=VERTEX_POINT('',#329);
#119=VERTEX_POINT('',#332);
#120=VERTEX_POINT('',#334);
#121=VERTEX_POINT('',#337);
#122=VERTEX_POINT('',#340);
#123=VERTEX_POINT('',#343);
#124=VERTEX_POINT('',#345);
#125=VERTEX_POINT('',#348);
#126=VERTEX_POINT('',#351);
#127=VERTEX_POINT('',#354);
#128=VERTEX_POINT('',#355);
#129=VERTEX_POINT('',#358);
#130=VERTEX_POINT('',#362);
#131=VERTEX_POINT('',#364);
#132=VERTEX_POINT('',#369);
#133=VERTEX_POINT('',#370);
#134=EDGE_CURVE('',#115,#115,#100,.T.);
#135=EDGE_CURVE('',#116,#116,#101,.T.);
#136=EDGE_CURVE('',#117,#117,#102,.T.);
#137=EDGE_CURVE('',#118,#118,#103,.T.);
#138=EDGE_CURVE('',#119,#119,#104,.T.);
#139=EDGE_CURVE('',#120,#120,#105,.T.);
#140=EDGE_CURVE('',#121,#121,#106,.T.);
#141=EDGE_CURVE('',#122,#122,#107,.T.);
#142=EDGE_CURVE('',#123,#123,#108,.T.);
#143=EDGE_CURVE('',#124,#124,#109,.T.);
#144=EDGE_CURVE('',#125,#125,#110,.T.);
#145=EDGE_CURVE('',#126,#126,#111,.T.);
#146=EDGE_CURVE('',#127,#128,#15,.T.);
#147=EDGE_CURVE('',#128,#127,#16,.T.);
#148=EDGE_CURVE('',#129,#129,#112,.T.);
#149=EDGE_CURVE('',#130,#130,#113,.T.);
#150=EDGE_CURVE('',#131,#131,#114,.T.);
#151=EDGE_CURVE('',#132,#133,#17,.T.);
#152=EDGE_CURVE('',#133,#132,#18,.T.);
#153=ORIENTED_EDGE('',*,*,#134,.T.);
#154=ORIENTED_EDGE('',*,*,#135,.T.);
#155=ORIENTED_EDGE('',*,*,#136,.F.);
#156=ORIENTED_EDGE('',*,*,#134,.F.);
#157=ORIENTED_EDGE('',*,*,#137,.T.);
#158=ORIENTED_EDGE('',*,*,#135,.F.);
#159=ORIENTED_EDGE('',*,*,#138,.T.);
#160=ORIENTED_EDGE('',*,*,#139,.T.);
#161=ORIENTED_EDGE('',*,*,#140,.T.);
#162=ORIENTED_EDGE('',*,*,#138,.F.);
#163=ORIENTED_EDGE('',*,*,#141,.T.);
#164=ORIENTED_EDGE('',*,*,#139,.F.);
#165=ORIENTED_EDGE('',*,*,#142,.T.);
#166=ORIENTED_EDGE('',*,*,#143,.T.);
#167=ORIENTED_EDGE('',*,*,#144,.T.);
#168=ORIENTED_EDGE('',*,*,#142,.F.);
#169=ORIENTED_EDGE('',*,*,#145,.T.);
#170=ORIENTED_EDGE('',*,*,#143,.F.);
#171=ORIENTED_EDGE('',*,*,#146,.F.);
#172=ORIENTED_EDGE('',*,*,#147,.F.);
#173=ORIENTED_EDGE('',*,*,#148,.F.);
#174=ORIENTED_EDGE('',*,*,#144,.F.);
#175=ORIENTED_EDGE('',*,*,#148,.T.);
#176=ORIENTED_EDGE('',*,*,#149,.F.);
#177=ORIENTED_EDGE('',*,*,#146,.T.);
#178=ORIENTED_EDGE('',*,*,#147,.T.);
#179=ORIENTED_EDGE('',*,*,#150,.F.);
#180=ORIENTED_EDGE('',*,*,#136,.T.);
#181=ORIENTED_EDGE('',*,*,#149,.T.);
#182=ORIENTED_EDGE('',*,*,#140,.F.);
#183=ORIENTED_EDGE('',*,*,#150,.T.);
#184=ORIENTED_EDGE('',*,*,#151,.F.);
#185=ORIENTED_EDGE('',*,*,#152,.F.);
#186=ORIENTED_EDGE('',*,*,#145,.F.);
#187=ORIENTED_EDGE('',*,*,#137,.F.);
#188=ORIENTED_EDGE('',*,*,#152,.T.);
#189=ORIENTED_EDGE('',*,*,#151,.T.);
#190=ORIENTED_EDGE('',*,*,#141,.F.);
#191=TOROIDAL_SURFACE('',#212,20.5,0.5);
#192=TOROIDAL_SURFACE('',#219,20.5,0.5);
#193=TOROIDAL_SURFACE('',#226,20.5,0.5);
#194=ADVANCED_FACE('',(#50,#32),#191,.T.);
#195=ADVANCED_FACE('',(#51,#33),#25,.F.);
#196=ADVANCED_FACE('',(#52,#34),#19,.F.);
#197=ADVANCED_FACE('',(#53,#35),#192,.T.);
#198=ADVANCED_FACE('',(#54,#36),#26,.F.);
#199=ADVANCED_FACE('',(#55,#37),#20,.T.);
#200=ADVANCED_FACE('',(#56,#38),#193,.T.);
#201=ADVANCED_FACE('',(#57,#39),#27,.F.);
#202=ADVANCED_FACE('',(#58,#40),#21,.T.);
#203=ADVANCED_FACE('',(#59,#41),#28,.F.);
#204=ADVANCED_FACE('',(#60,#42),#22,.T.);
#205=ADVANCED_FACE('',(#61,#43,#44),#29,.F.);
#206=ADVANCED_FACE('',(#62,#45),#23,.F.);
#207=ADVANCED_FACE('',(#63,#46),#24,.T.);
#208=ADVANCED_FACE('',(#64,#47),#30,.T.);
#209=ADVANCED_FACE('',(#65,#48,#49),#31,.T.);
#210=CLOSED_SHELL('',(#194,#195,#196,#197,#198,#199,#200,#201,#202,#203,
#204,#205,#206,#207,#208,#209));
#211=AXIS2_PLACEMENT_3D('placement',#319,#247,#248);
#212=AXIS2_PLACEMENT_3D('',#320,#249,#250);
#213=AXIS2_PLACEMENT_3D('',#322,#251,#252);
#214=AXIS2_PLACEMENT_3D('',#324,#253,#254);
#215=AXIS2_PLACEMENT_3D('',#325,#255,#256);
#216=AXIS2_PLACEMENT_3D('',#327,#257,#258);
#217=AXIS2_PLACEMENT_3D('',#328,#259,#260);
#218=AXIS2_PLACEMENT_3D('',#330,#261,#262);
#219=AXIS2_PLACEMENT_3D('',#331,#263,#264);
#220=AXIS2_PLACEMENT_3D('',#333,#265,#266);
#221=AXIS2_PLACEMENT_3D('',#335,#267,#268);
#222=AXIS2_PLACEMENT_3D('',#336,#269,#270);
#223=AXIS2_PLACEMENT_3D('',#338,#271,#272);
#224=AXIS2_PLACEMENT_3D('',#339,#273,#274);
#225=AXIS2_PLACEMENT_3D('',#341,#275,#276);
#226=AXIS2_PLACEMENT_3D('',#342,#277,#278);
#227=AXIS2_PLACEMENT_3D('',#344,#279,#280);
#228=AXIS2_PLACEMENT_3D('',#346,#281,#282);
#229=AXIS2_PLACEMENT_3D('',#347,#283,#284);
#230=AXIS2_PLACEMENT_3D('',#349,#285,#286);
#231=AXIS2_PLACEMENT_3D('',#350,#287,#288);
#232=AXIS2_PLACEMENT_3D('',#352,#289,#290);
#233=AXIS2_PLACEMENT_3D('',#353,#291,#292);
#234=AXIS2_PLACEMENT_3D('',#356,#293,#294);
#235=AXIS2_PLACEMENT_3D('',#357,#295,#296);
#236=AXIS2_PLACEMENT_3D('',#359,#297,#298);
#237=AXIS2_PLACEMENT_3D('',#360,#299,#300);
#238=AXIS2_PLACEMENT_3D('',#361,#301,#302);
#239=AXIS2_PLACEMENT_3D('',#363,#303,#304);
#240=AXIS2_PLACEMENT_3D('',#365,#305,#306);
#241=AXIS2_PLACEMENT_3D('',#366,#307,#308);
#242=AXIS2_PLACEMENT_3D('',#367,#309,#310);
#243=AXIS2_PLACEMENT_3D('',#368,#311,#312);
#244=AXIS2_PLACEMENT_3D('',#371,#313,#314);
#245=AXIS2_PLACEMENT_3D('',#372,#315,#316);
#246=AXIS2_PLACEMENT_3D('',#373,#317,#318);
#247=DIRECTION('axis',(0.,0.,1.));
#248=DIRECTION('refdir',(1.,0.,0.));
#249=DIRECTION('center_axis',(0.,0.,1.));
#250=DIRECTION('ref_axis',(1.,0.,0.));
#251=DIRECTION('center_axis',(0.,0.,1.));
#252=DIRECTION('ref_axis',(-1.,0.,0.));
#253=DIRECTION('center_axis',(0.,0.,-1.));
#254=DIRECTION('ref_axis',(-1.,0.,0.));
#255=DIRECTION('center_axis',(0.,0.,-1.));
#256=DIRECTION('ref_axis',(-1.,0.,0.));
#257=DIRECTION('center_axis',(0.,0.,-1.));
#258=DIRECTION('ref_axis',(-1.,0.,0.));
#259=DIRECTION('center_axis',(0.,0.,1.));
#260=DIRECTION('ref_axis',(1.,0.,0.));
#261=DIRECTION('center_axis',(0.,0.,-1.));
#262=DIRECTION('ref_axis',(-1.,0.,0.));
#263=DIRECTION('center_axis',(0.,0.,-1.));
#264=DIRECTION('ref_axis',(-1.,0.,0.));
#265=DIRECTION('center_axis',(0.,0.,-1.));
#266=DIRECTION('ref_axis',(-1.,0.,0.));
#267=DIRECTION('center_axis',(0.,0.,1.));
#268=DIRECTION('ref_axis',(-1.,0.,0.));
#269=DIRECTION('center_axis',(0.,0.,-1.));
#270=DIRECTION('ref_axis',(-1.,0.,0.));
#271=DIRECTION('center_axis',(0.,0.,-1.));
#272=DIRECTION('ref_axis',(-1.,0.,0.));
#273=DIRECTION('center_axis',(0.,0.,1.));
#274=DIRECTION('ref_axis',(1.,0.,0.));
#275=DIRECTION('center_axis',(0.,0.,1.));
#276=DIRECTION('ref_axis',(-1.,0.,0.));
#277=DIRECTION('center_axis',(0.,-1.,0.));
#278=DIRECTION('ref_axis',(0.,0.,-1.));
#279=DIRECTION('center_axis',(0.,-1.,0.));
#280=DIRECTION('ref_axis',(-1.,0.,0.));
#281=DIRECTION('center_axis',(0.,1.,0.));
#282=DIRECTION('ref_axis',(-1.,0.,0.));
#283=DIRECTION('center_axis',(0.,-1.,0.));
#284=DIRECTION('ref_axis',(-1.,0.,0.));
#285=DIRECTION('center_axis',(0.,-1.,0.));
#286=DIRECTION('ref_axis',(-1.,0.,0.));
#287=DIRECTION('center_axis',(0.,1.,0.));
#288=DIRECTION('ref_axis',(0.,0.,1.));
#289=DIRECTION('center_axis',(0.,1.,0.));
#290=DIRECTION('ref_axis',(1.,0.,0.));
#291=DIRECTION('center_axis',(0.,-1.,0.));
#292=DIRECTION('ref_axis',(-1.,0.,0.));
#293=DIRECTION('center_axis',(0.,0.707106781186548,-0.707106781186548));
#294=DIRECTION('ref_axis',(0.,-0.707106781186548,-0.707106781186548));
#295=DIRECTION('center_axis',(0.,0.707106781186548,0.707106781186548));
#296=DIRECTION('ref_axis',(0.,0.707106781186548,-0.707106781186548));
#297=DIRECTION('center_axis',(0.,-1.,0.));
#298=DIRECTION('ref_axis',(-1.,0.,0.));
#299=DIRECTION('center_axis',(0.,1.,0.));
#300=DIRECTION('ref_axis',(0.,0.,1.));
#301=DIRECTION('center_axis',(0.,0.,-1.));
#302=DIRECTION('ref_axis',(-1.,0.,0.));
#303=DIRECTION('center_axis',(0.,0.,1.));
#304=DIRECTION('ref_axis',(-1.,0.,0.));
#305=DIRECTION('center_axis',(0.,0.,-1.));
#306=DIRECTION('ref_axis',(-1.,0.,0.));
#307=DIRECTION('center_axis',(0.,0.,1.));
#308=DIRECTION('ref_axis',(1.,0.,0.));
#309=DIRECTION('center_axis',(0.,0.,1.));
#310=DIRECTION('ref_axis',(1.,0.,0.));
#311=DIRECTION('center_axis',(0.,1.,0.));
#312=DIRECTION('ref_axis',(1.,0.,0.));
#313=DIRECTION('center_axis',(0.,-0.707106781186548,-0.707106781186548));
#314=DIRECTION('ref_axis',(0.,0.707106781186547,-0.707106781186547));
#315=DIRECTION('center_axis',(0.,-0.707106781186548,0.707106781186548));
#316=DIRECTION('ref_axis',(0.,-0.707106781186547,-0.707106781186547));
#317=DIRECTION('center_axis',(0.,0.,1.));
#318=DIRECTION('ref_axis',(-1.,0.,0.));
#319=CARTESIAN_POINT('',(0.,0.,0.));
#320=CARTESIAN_POINT('Origin',(0.,0.,-46.5));
#321=CARTESIAN_POINT('',(20.,2.44929359829471E-15,-46.5));
#322=CARTESIAN_POINT('Origin',(0.,0.,-46.5));
#323=CARTESIAN_POINT('',(20.5,-2.51052593825207E-15,-47.));
#324=CARTESIAN_POINT('Origin',(0.,0.,-47.));
#325=CARTESIAN_POINT('Origin',(0.,0.,-47.));
#326=CARTESIAN_POINT('',(20.,2.44929359829471E-15,-21.));
#327=CARTESIAN_POINT('Origin',(0.,0.,-21.));
#328=CARTESIAN_POINT('Origin',(-1.42125498691048E-15,0.,-47.));
#329=CARTESIAN_POINT('',(25.5,3.12284933782575E-15,-47.));
#330=CARTESIAN_POINT('Origin',(0.,0.,-47.));
#331=CARTESIAN_POINT('Origin',(0.,0.,46.5));
#332=CARTESIAN_POINT('',(20.,-2.44929359829471E-15,46.5));
#333=CARTESIAN_POINT('Origin',(0.,0.,46.5));
#334=CARTESIAN_POINT('',(20.5,2.51052593825207E-15,47.));
#335=CARTESIAN_POINT('Origin',(0.,0.,47.));
#336=CARTESIAN_POINT('Origin',(0.,0.,47.));
#337=CARTESIAN_POINT('',(20.,2.44929359829471E-15,21.));
#338=CARTESIAN_POINT('Origin',(0.,0.,21.));
#339=CARTESIAN_POINT('Origin',(-1.42125498691048E-15,0.,47.));
#340=CARTESIAN_POINT('',(25.5,3.12284933782575E-15,47.));
#341=CARTESIAN_POINT('Origin',(0.,0.,47.));
#342=CARTESIAN_POINT('Origin',(0.,46.5,0.));
#343=CARTESIAN_POINT('',(20.,46.5,2.44929359829471E-15));
#344=CARTESIAN_POINT('Origin',(0.,46.5,0.));
#345=CARTESIAN_POINT('',(20.5,47.,-2.51052593825207E-15));
#346=CARTESIAN_POINT('Origin',(0.,47.,0.));
#347=CARTESIAN_POINT('Origin',(0.,47.,0.));
#348=CARTESIAN_POINT('',(20.,21.,-2.44929359829471E-15));
#349=CARTESIAN_POINT('Origin',(0.,21.,0.));
#350=CARTESIAN_POINT('Origin',(1.42125498691048E-15,47.,0.));
#351=CARTESIAN_POINT('',(-25.5,47.,3.12284933782575E-15));
#352=CARTESIAN_POINT('Origin',(0.,47.,0.));
#353=CARTESIAN_POINT('Origin',(0.,21.,0.));
#354=CARTESIAN_POINT('',(-19.5,0.,0.));
#355=CARTESIAN_POINT('',(19.5,0.,-2.38806125833734E-15));
#356=CARTESIAN_POINT('Origin',(0.,0.,0.));
#357=CARTESIAN_POINT('Origin',(0.,0.,0.));
#358=CARTESIAN_POINT('',(19.5,21.,-2.38806125833734E-15));
#359=CARTESIAN_POINT('Origin',(0.,21.,0.));
#360=CARTESIAN_POINT('Origin',(-9.4425648294133E-16,21.,0.));
#361=CARTESIAN_POINT('Origin',(0.,0.,21.));
#362=CARTESIAN_POINT('',(19.5,2.38806125833734E-15,-21.));
#363=CARTESIAN_POINT('Origin',(0.,0.,-21.));
#364=CARTESIAN_POINT('',(19.5,2.38806125833734E-15,21.));
#365=CARTESIAN_POINT('Origin',(0.,0.,21.));
#366=CARTESIAN_POINT('Origin',(-9.4425648294133E-16,0.,-21.));
#367=CARTESIAN_POINT('Origin',(-9.4425648294133E-16,0.,21.));
#368=CARTESIAN_POINT('Origin',(0.,0.,0.));
#369=CARTESIAN_POINT('',(-25.5,0.,3.12284933782575E-15));
#370=CARTESIAN_POINT('',(25.5,0.,0.));
#371=CARTESIAN_POINT('Origin',(0.,0.,0.));
#372=CARTESIAN_POINT('Origin',(0.,0.,0.));
#373=CARTESIAN_POINT('Origin',(0.,0.,0.));
#374=UNCERTAINTY_MEASURE_WITH_UNIT(LENGTH_MEASURE(0.01),#378,
'DISTANCE_ACCURACY_VALUE',
'Maximum model space distance between geometric entities at asserted c
onnectivities');
#375=UNCERTAINTY_MEASURE_WITH_UNIT(LENGTH_MEASURE(1.E-6),#378,
'DISTANCE_ACCURACY_VALUE',
'Maximum model space distance between geometric entities at asserted c
onnectivities');
#376=(
GEOMETRIC_REPRESENTATION_CONTEXT(3)
GLOBAL_UNCERTAINTY_ASSIGNED_CONTEXT((#374))
GLOBAL_UNIT_ASSIGNED_CONTEXT((#378,#381,#379))
REPRESENTATION_CONTEXT('','3D')
);
#377=(
GEOMETRIC_REPRESENTATION_CONTEXT(3)
GLOBAL_UNCERTAINTY_ASSIGNED_CONTEXT((#375))
GLOBAL_UNIT_ASSIGNED_CONTEXT((#378,#381,#379))
REPRESENTATION_CONTEXT('','3D')
);
#378=(
LENGTH_UNIT()
NAMED_UNIT(*)
SI_UNIT(.MILLI.,.METRE.)
);
#379=(
NAMED_UNIT(*)
SI_UNIT($,.STERADIAN.)
SOLID_ANGLE_UNIT()
);
#380=DIMENSIONAL_EXPONENTS(0.,0.,0.,0.,0.,0.,0.);
#381=(
CONVERSION_BASED_UNIT('degree',#383)
NAMED_UNIT(#380)
PLANE_ANGLE_UNIT()
);
#382=(
NAMED_UNIT(*)
PLANE_ANGLE_UNIT()
SI_UNIT($,.RADIAN.)
);
#383=PLANE_ANGLE_MEASURE_WITH_UNIT(PLANE_ANGLE_MEASURE(0.01745329252),#382);
#384=SHAPE_DEFINITION_REPRESENTATION(#385,#386);
#385=PRODUCT_DEFINITION_SHAPE('',$,#388);
#386=SHAPE_REPRESENTATION('',(#211),#376);
#387=PRODUCT_DEFINITION_CONTEXT('part definition',#392,'design');
#388=PRODUCT_DEFINITION('TE400400','TE400400',#389,#387);
#389=PRODUCT_DEFINITION_FORMATION('',$,#394);
#390=PRODUCT_RELATED_PRODUCT_CATEGORY('TE400400','TE400400',(#394));
#391=APPLICATION_PROTOCOL_DEFINITION('international standard',
'automotive_design',2009,#392);
#392=APPLICATION_CONTEXT(
'Core Data for Automotive Mechanical Design Process');
#393=PRODUCT_CONTEXT('part definition',#392,'mechanical');
#394=PRODUCT('TE400400','TE400400',$,(#393));
#395=PRESENTATION_STYLE_ASSIGNMENT((#396));
#396=SURFACE_STYLE_USAGE(.BOTH.,#397);
#397=SURFACE_SIDE_STYLE('',(#398));
#398=SURFACE_STYLE_FILL_AREA(#399);
#399=FILL_AREA_STYLE('',(#400));
#400=FILL_AREA_STYLE_COLOUR('',#401);
#401=COLOUR_RGB('',0.8,0.8,0.8);
ENDSEC;
END-ISO-10303-21;
