ISO-10303-21;
HEADER;
FILE_DESCRIPTION( ( 'STEP AP214' ), '1' );
FILE_NAME( 'p:/temp/worker_20/temp/exporttempdir_2192_903_Dx3Pr/format_0/22050003207(architecture400).stp', '2021-11-17T11:34:22', ( 'License CC BY-ND 4.0' ), ( 'CADENAS' ), ' ', 'PARTsolutions', ' ' );
FILE_SCHEMA( ( 'AUTOMOTIVE_DESIGN { 1 0 10303 214 1 1 1 1 }' ) );
ENDSEC;
DATA;
#1 = MECHANICAL_DESIGN_GEOMETRIC_PRESENTATION_REPRESENTATION( ' ', ( #10, #11, #12, #13, #14, #15, #16, #17, #18, #19, #20, #21 ), #6 );
#2 = PRODUCT_DEFINITION_CONTEXT( '', #22, 'design' );
#3 = APPLICATION_PROTOCOL_DEFINITION( 'international standard', 'automotive_design', 2001, #22 );
#4 = PRODUCT_CATEGORY_RELATIONSHIP( 'NONE', 'NONE', #23, #24 );
#5 = SHAPE_DEFINITION_REPRESENTATION( #25, #26 );
#6 =  ( GEOMETRIC_REPRESENTATION_CONTEXT( 3 )GLOBAL_UNCERTAINTY_ASSIGNED_CONTEXT( ( #29 ) )GLOBAL_UNIT_ASSIGNED_CONTEXT( ( #31, #32, #33 ) )REPRESENTATION_CONTEXT( 'NONE', 'WORKSPACE' ) );
#10 = STYLED_ITEM( '', ( #35 ), #36 );
#11 = STYLED_ITEM( '', ( #37 ), #38 );
#12 = STYLED_ITEM( '', ( #39 ), #40 );
#13 = STYLED_ITEM( '', ( #41 ), #42 );
#14 = STYLED_ITEM( '', ( #43 ), #44 );
#15 = STYLED_ITEM( '', ( #45 ), #46 );
#16 = STYLED_ITEM( '', ( #47 ), #48 );
#17 = STYLED_ITEM( '', ( #49 ), #50 );
#18 = STYLED_ITEM( '', ( #51 ), #52 );
#19 = STYLED_ITEM( '', ( #53 ), #54 );
#20 = STYLED_ITEM( '', ( #55 ), #56 );
#21 = STYLED_ITEM( '', ( #57 ), #58 );
#22 = APPLICATION_CONTEXT( 'core data for automotive mechanical design processes' );
#23 = PRODUCT_CATEGORY( 'part', 'NONE' );
#24 = PRODUCT_RELATED_PRODUCT_CATEGORY( 'detail', ' ', ( #59 ) );
#25 = PRODUCT_DEFINITION_SHAPE( 'NONE', 'NONE', #60 );
#26 = ADVANCED_BREP_SHAPE_REPRESENTATION( '_22050003207(architecture400)', ( #61, #62 ), #6 );
#29 = UNCERTAINTY_MEASURE_WITH_UNIT( LENGTH_MEASURE( 0.00100000000000000 ), #31, '', '' );
#31 =  ( CONVERSION_BASED_UNIT( 'MILLIMETRE', #65 )LENGTH_UNIT(  )NAMED_UNIT( #68 ) );
#32 =  ( NAMED_UNIT( #70 )PLANE_ANGLE_UNIT(  )SI_UNIT( $, .RADIAN. ) );
#33 =  ( NAMED_UNIT( #70 )SI_UNIT( $, .STERADIAN. )SOLID_ANGLE_UNIT(  ) );
#35 = PRESENTATION_STYLE_ASSIGNMENT( ( #76 ) );
#36 = ADVANCED_FACE( '', ( #77 ), #78, .T. );
#37 = PRESENTATION_STYLE_ASSIGNMENT( ( #79 ) );
#38 = ADVANCED_FACE( '', ( #80, #81 ), #82, .F. );
#39 = PRESENTATION_STYLE_ASSIGNMENT( ( #83 ) );
#40 = ADVANCED_FACE( '', ( #84, #85 ), #86, .T. );
#41 = PRESENTATION_STYLE_ASSIGNMENT( ( #87 ) );
#42 = ADVANCED_FACE( '', ( #88, #89 ), #90, .F. );
#43 = PRESENTATION_STYLE_ASSIGNMENT( ( #91 ) );
#44 = ADVANCED_FACE( '', ( #92, #93 ), #94, .T. );
#45 = PRESENTATION_STYLE_ASSIGNMENT( ( #95 ) );
#46 = ADVANCED_FACE( '', ( #96, #97 ), #98, .F. );
#47 = PRESENTATION_STYLE_ASSIGNMENT( ( #99 ) );
#48 = ADVANCED_FACE( '', ( #100, #101 ), #102, .F. );
#49 = PRESENTATION_STYLE_ASSIGNMENT( ( #103 ) );
#50 = ADVANCED_FACE( '', ( #104, #105 ), #106, .F. );
#51 = PRESENTATION_STYLE_ASSIGNMENT( ( #107 ) );
#52 = ADVANCED_FACE( '', ( #108 ), #109, .F. );
#53 = PRESENTATION_STYLE_ASSIGNMENT( ( #110 ) );
#54 = ADVANCED_FACE( '', ( #111, #112 ), #113, .T. );
#55 = PRESENTATION_STYLE_ASSIGNMENT( ( #114 ) );
#56 = ADVANCED_FACE( '', ( #115, #116 ), #117, .F. );
#57 = PRESENTATION_STYLE_ASSIGNMENT( ( #118 ) );
#58 = ADVANCED_FACE( '', ( #119, #120 ), #121, .T. );
#59 = PRODUCT( '_22050003207(architecture400)', '_22050003207(architecture400)', 'PART-_22050003207(architecture400)-DESC', ( #122 ) );
#60 = PRODUCT_DEFINITION( 'NONE', 'NONE', #123, #2 );
#61 = MANIFOLD_SOLID_BREP( '_22050003207(architecture400)', #124 );
#62 = AXIS2_PLACEMENT_3D( '', #125, #126, #127 );
#65 = LENGTH_MEASURE_WITH_UNIT( LENGTH_MEASURE( 1.00000000000000 ), #128 );
#68 = DIMENSIONAL_EXPONENTS( 1.00000000000000, 0.000000000000000, 0.000000000000000, 0.000000000000000, 0.000000000000000, 0.000000000000000, 0.000000000000000 );
#70 = DIMENSIONAL_EXPONENTS( 0.000000000000000, 0.000000000000000, 0.000000000000000, 0.000000000000000, 0.000000000000000, 0.000000000000000, 0.000000000000000 );
#76 = SURFACE_STYLE_USAGE( .BOTH., #129 );
#77 = FACE_OUTER_BOUND( '', #130, .T. );
#78 = SPHERICAL_SURFACE( '', #131, 21.5000000000000 );
#79 = SURFACE_STYLE_USAGE( .BOTH., #132 );
#80 = FACE_OUTER_BOUND( '', #133, .T. );
#81 = FACE_OUTER_BOUND( '', #134, .T. );
#82 = CYLINDRICAL_SURFACE( '', #135, 14.1666666667000 );
#83 = SURFACE_STYLE_USAGE( .BOTH., #136 );
#84 = FACE_BOUND( '', #137, .T. );
#85 = FACE_OUTER_BOUND( '', #138, .T. );
#86 = PLANE( '', #139 );
#87 = SURFACE_STYLE_USAGE( .BOTH., #140 );
#88 = FACE_BOUND( '', #141, .T. );
#89 = FACE_OUTER_BOUND( '', #142, .T. );
#90 = PLANE( '', #143 );
#91 = SURFACE_STYLE_USAGE( .BOTH., #144 );
#92 = FACE_OUTER_BOUND( '', #145, .T. );
#93 = FACE_OUTER_BOUND( '', #146, .T. );
#94 = CYLINDRICAL_SURFACE( '', #147, 21.5000000000000 );
#95 = SURFACE_STYLE_USAGE( .BOTH., #148 );
#96 = FACE_OUTER_BOUND( '', #149, .T. );
#97 = FACE_OUTER_BOUND( '', #150, .T. );
#98 = CYLINDRICAL_SURFACE( '', #151, 16.0000000000000 );
#99 = SURFACE_STYLE_USAGE( .BOTH., #152 );
#100 = FACE_OUTER_BOUND( '', #153, .T. );
#101 = FACE_OUTER_BOUND( '', #154, .T. );
#102 = CYLINDRICAL_SURFACE( '', #155, 16.0000000000000 );
#103 = SURFACE_STYLE_USAGE( .BOTH., #156 );
#104 = FACE_OUTER_BOUND( '', #157, .T. );
#105 = FACE_OUTER_BOUND( '', #158, .T. );
#106 = CYLINDRICAL_SURFACE( '', #159, 14.1666666667000 );
#107 = SURFACE_STYLE_USAGE( .BOTH., #160 );
#108 = FACE_OUTER_BOUND( '', #161, .T. );
#109 = SPHERICAL_SURFACE( '', #162, 14.1666666667000 );
#110 = SURFACE_STYLE_USAGE( .BOTH., #163 );
#111 = FACE_OUTER_BOUND( '', #164, .T. );
#112 = FACE_BOUND( '', #165, .T. );
#113 = PLANE( '', #166 );
#114 = SURFACE_STYLE_USAGE( .BOTH., #167 );
#115 = FACE_BOUND( '', #168, .T. );
#116 = FACE_OUTER_BOUND( '', #169, .T. );
#117 = PLANE( '', #170 );
#118 = SURFACE_STYLE_USAGE( .BOTH., #171 );
#119 = FACE_OUTER_BOUND( '', #172, .T. );
#120 = FACE_OUTER_BOUND( '', #173, .T. );
#121 = CYLINDRICAL_SURFACE( '', #174, 21.5000000000000 );
#122 = PRODUCT_CONTEXT( '', #22, 'mechanical' );
#123 = PRODUCT_DEFINITION_FORMATION_WITH_SPECIFIED_SOURCE( ' ', 'NONE', #59, .NOT_KNOWN. );
#124 = CLOSED_SHELL( '', ( #42, #58, #36, #44, #38, #40, #46, #56, #48, #54, #50, #52 ) );
#125 = CARTESIAN_POINT( '', ( 0.000000000000000, 0.000000000000000, 0.000000000000000 ) );
#126 = DIRECTION( '', ( 0.000000000000000, 0.000000000000000, 1.00000000000000 ) );
#127 = DIRECTION( '', ( 1.00000000000000, 0.000000000000000, 0.000000000000000 ) );
#128 =  ( LENGTH_UNIT(  )NAMED_UNIT( #68 )SI_UNIT( .MILLI., .METRE. ) );
#129 = SURFACE_SIDE_STYLE( '', ( #176 ) );
#130 = EDGE_LOOP( '', ( #177, #178 ) );
#131 = AXIS2_PLACEMENT_3D( '', #179, #180, #181 );
#132 = SURFACE_SIDE_STYLE( '', ( #182 ) );
#133 = EDGE_LOOP( '', ( #183, #184 ) );
#134 = EDGE_LOOP( '', ( #185 ) );
#135 = AXIS2_PLACEMENT_3D( '', #186, #187, #188 );
#136 = SURFACE_SIDE_STYLE( '', ( #189 ) );
#137 = EDGE_LOOP( '', ( #190 ) );
#138 = EDGE_LOOP( '', ( #191 ) );
#139 = AXIS2_PLACEMENT_3D( '', #192, #193, #194 );
#140 = SURFACE_SIDE_STYLE( '', ( #195 ) );
#141 = EDGE_LOOP( '', ( #196 ) );
#142 = EDGE_LOOP( '', ( #197 ) );
#143 = AXIS2_PLACEMENT_3D( '', #198, #199, #200 );
#144 = SURFACE_SIDE_STYLE( '', ( #201 ) );
#145 = EDGE_LOOP( '', ( #202 ) );
#146 = EDGE_LOOP( '', ( #203, #204 ) );
#147 = AXIS2_PLACEMENT_3D( '', #205, #206, #207 );
#148 = SURFACE_SIDE_STYLE( '', ( #208 ) );
#149 = EDGE_LOOP( '', ( #209 ) );
#150 = EDGE_LOOP( '', ( #210 ) );
#151 = AXIS2_PLACEMENT_3D( '', #211, #212, #213 );
#152 = SURFACE_SIDE_STYLE( '', ( #214 ) );
#153 = EDGE_LOOP( '', ( #215 ) );
#154 = EDGE_LOOP( '', ( #216 ) );
#155 = AXIS2_PLACEMENT_3D( '', #217, #218, #219 );
#156 = SURFACE_SIDE_STYLE( '', ( #220 ) );
#157 = EDGE_LOOP( '', ( #221 ) );
#158 = EDGE_LOOP( '', ( #222, #223 ) );
#159 = AXIS2_PLACEMENT_3D( '', #224, #225, #226 );
#160 = SURFACE_SIDE_STYLE( '', ( #227 ) );
#161 = EDGE_LOOP( '', ( #228, #229 ) );
#162 = AXIS2_PLACEMENT_3D( '', #230, #231, #232 );
#163 = SURFACE_SIDE_STYLE( '', ( #233 ) );
#164 = EDGE_LOOP( '', ( #234 ) );
#165 = EDGE_LOOP( '', ( #235 ) );
#166 = AXIS2_PLACEMENT_3D( '', #236, #237, #238 );
#167 = SURFACE_SIDE_STYLE( '', ( #239 ) );
#168 = EDGE_LOOP( '', ( #240 ) );
#169 = EDGE_LOOP( '', ( #241 ) );
#170 = AXIS2_PLACEMENT_3D( '', #242, #243, #244 );
#171 = SURFACE_SIDE_STYLE( '', ( #245 ) );
#172 = EDGE_LOOP( '', ( #246 ) );
#173 = EDGE_LOOP( '', ( #247, #248 ) );
#174 = AXIS2_PLACEMENT_3D( '', #249, #250, #251 );
#176 = SURFACE_STYLE_FILL_AREA( #252 );
#177 = ORIENTED_EDGE( '', *, *, #253, .T. );
#178 = ORIENTED_EDGE( '', *, *, #254, .F. );
#179 = CARTESIAN_POINT( '', ( -3.46944695195361E-15, 0.000000000000000, 10.5000000000000 ) );
#180 = DIRECTION( '', ( 0.000000000000000, 0.000000000000000, 1.00000000000000 ) );
#181 = DIRECTION( '', ( 1.00000000000000, 0.000000000000000, 0.000000000000000 ) );
#182 = SURFACE_STYLE_FILL_AREA( #255 );
#183 = ORIENTED_EDGE( '', *, *, #256, .T. );
#184 = ORIENTED_EDGE( '', *, *, #257, .T. );
#185 = ORIENTED_EDGE( '', *, *, #258, .F. );
#186 = CARTESIAN_POINT( '', ( 0.000000000000000, 0.000000000000000, 24.6666666666667 ) );
#187 = DIRECTION( '', ( -0.000000000000000, 0.000000000000000, -1.00000000000000 ) );
#188 = DIRECTION( '', ( 1.00000000000000, 0.000000000000000, 0.000000000000000 ) );
#189 = SURFACE_STYLE_FILL_AREA( #259 );
#190 = ORIENTED_EDGE( '', *, *, #258, .T. );
#191 = ORIENTED_EDGE( '', *, *, #260, .F. );
#192 = CARTESIAN_POINT( '', ( -16.0000000000000, 0.000000000000000, 1.73472347597681E-15 ) );
#193 = DIRECTION( '', ( 0.000000000000000, 0.000000000000000, -1.00000000000000 ) );
#194 = DIRECTION( '', ( -1.00000000000000, 0.000000000000000, 0.000000000000000 ) );
#195 = SURFACE_STYLE_FILL_AREA( #261 );
#196 = ORIENTED_EDGE( '', *, *, #262, .F. );
#197 = ORIENTED_EDGE( '', *, *, #263, .F. );
#198 = CARTESIAN_POINT( '', ( 0.000000000000000, 0.000000000000000, -20.0000000000000 ) );
#199 = DIRECTION( '', ( 0.000000000000000, 0.000000000000000, 1.00000000000000 ) );
#200 = DIRECTION( '', ( 1.00000000000000, 0.000000000000000, -0.000000000000000 ) );
#201 = SURFACE_STYLE_FILL_AREA( #264 );
#202 = ORIENTED_EDGE( '', *, *, #265, .F. );
#203 = ORIENTED_EDGE( '', *, *, #254, .T. );
#204 = ORIENTED_EDGE( '', *, *, #266, .T. );
#205 = CARTESIAN_POINT( '', ( 21.5667568261897, 0.000000000000000, 32.0667568261897 ) );
#206 = DIRECTION( '', ( -0.707106781186547, 0.000000000000000, -0.707106781186548 ) );
#207 = DIRECTION( '', ( 0.707106781186548, 0.000000000000000, -0.707106781186547 ) );
#208 = SURFACE_STYLE_FILL_AREA( #267 );
#209 = ORIENTED_EDGE( '', *, *, #260, .T. );
#210 = ORIENTED_EDGE( '', *, *, #262, .T. );
#211 = CARTESIAN_POINT( '', ( 0.000000000000000, 0.000000000000000, 24.6666666666667 ) );
#212 = DIRECTION( '', ( -0.000000000000000, 0.000000000000000, -1.00000000000000 ) );
#213 = DIRECTION( '', ( 1.00000000000000, 0.000000000000000, 0.000000000000000 ) );
#214 = SURFACE_STYLE_FILL_AREA( #268 );
#215 = ORIENTED_EDGE( '', *, *, #269, .T. );
#216 = ORIENTED_EDGE( '', *, *, #270, .F. );
#217 = CARTESIAN_POINT( '', ( 22.2738636073762, 0.000000000000000, 32.7738636073762 ) );
#218 = DIRECTION( '', ( -0.707106781186548, 0.000000000000000, -0.707106781186548 ) );
#219 = DIRECTION( '', ( 0.707106781186547, 0.000000000000000, -0.707106781186547 ) );
#220 = SURFACE_STYLE_FILL_AREA( #271 );
#221 = ORIENTED_EDGE( '', *, *, #272, .T. );
#222 = ORIENTED_EDGE( '', *, *, #256, .F. );
#223 = ORIENTED_EDGE( '', *, *, #273, .F. );
#224 = CARTESIAN_POINT( '', ( 22.2738636073762, 0.000000000000000, 32.7738636073762 ) );
#225 = DIRECTION( '', ( -0.707106781186548, 0.000000000000000, -0.707106781186548 ) );
#226 = DIRECTION( '', ( 0.707106781186547, 0.000000000000000, -0.707106781186547 ) );
#227 = SURFACE_STYLE_FILL_AREA( #274 );
#228 = ORIENTED_EDGE( '', *, *, #257, .F. );
#229 = ORIENTED_EDGE( '', *, *, #273, .T. );
#230 = CARTESIAN_POINT( '', ( -8.67361737988404E-15, 0.000000000000000, 10.5000000000000 ) );
#231 = DIRECTION( '', ( 0.000000000000000, 0.000000000000000, 1.00000000000000 ) );
#232 = DIRECTION( '', ( 1.00000000000000, 0.000000000000000, 0.000000000000000 ) );
#233 = SURFACE_STYLE_FILL_AREA( #275 );
#234 = ORIENTED_EDGE( '', *, *, #270, .T. );
#235 = ORIENTED_EDGE( '', *, *, #272, .F. );
#236 = CARTESIAN_POINT( '', ( -2.59272486435068, 0.000000000000000, 27.9419672692682 ) );
#237 = DIRECTION( '', ( 0.707106781186548, -0.000000000000000, 0.707106781186548 ) );
#238 = DIRECTION( '', ( 0.707106781186547, 0.000000000000000, -0.707106781186547 ) );
#239 = SURFACE_STYLE_FILL_AREA( #276 );
#240 = ORIENTED_EDGE( '', *, *, #269, .F. );
#241 = ORIENTED_EDGE( '', *, *, #265, .T. );
#242 = CARTESIAN_POINT( '', ( 6.36396103067893, 0.000000000000000, 47.2695526217005 ) );
#243 = DIRECTION( '', ( -0.707106781186547, 0.000000000000000, -0.707106781186548 ) );
#244 = DIRECTION( '', ( -0.707106781186548, 0.000000000000000, 0.707106781186547 ) );
#245 = SURFACE_STYLE_FILL_AREA( #277 );
#246 = ORIENTED_EDGE( '', *, *, #263, .T. );
#247 = ORIENTED_EDGE( '', *, *, #266, .F. );
#248 = ORIENTED_EDGE( '', *, *, #253, .F. );
#249 = CARTESIAN_POINT( '', ( 0.000000000000000, 0.000000000000000, 10.5000000000000 ) );
#250 = DIRECTION( '', ( 0.000000000000000, -0.000000000000000, 1.00000000000000 ) );
#251 = DIRECTION( '', ( -1.00000000000000, 0.000000000000000, 0.000000000000000 ) );
#252 = FILL_AREA_STYLE( '', ( #278 ) );
#253 = EDGE_CURVE( '', #279, #280, #281, .T. );
#254 = EDGE_CURVE( '', #279, #280, #282, .T. );
#255 = FILL_AREA_STYLE( '', ( #283 ) );
#256 = EDGE_CURVE( '', #284, #285, #286, .T. );
#257 = EDGE_CURVE( '', #285, #284, #287, .T. );
#258 = EDGE_CURVE( '', #288, #288, #289, .T. );
#259 = FILL_AREA_STYLE( '', ( #290 ) );
#260 = EDGE_CURVE( '', #291, #291, #292, .T. );
#261 = FILL_AREA_STYLE( '', ( #293 ) );
#262 = EDGE_CURVE( '', #294, #294, #295, .F. );
#263 = EDGE_CURVE( '', #296, #296, #297, .T. );
#264 = FILL_AREA_STYLE( '', ( #298 ) );
#265 = EDGE_CURVE( '', #299, #299, #300, .T. );
#266 = EDGE_CURVE( '', #280, #279, #301, .F. );
#267 = FILL_AREA_STYLE( '', ( #302 ) );
#268 = FILL_AREA_STYLE( '', ( #303 ) );
#269 = EDGE_CURVE( '', #304, #304, #305, .F. );
#270 = EDGE_CURVE( '', #306, #306, #307, .T. );
#271 = FILL_AREA_STYLE( '', ( #308 ) );
#272 = EDGE_CURVE( '', #309, #309, #310, .T. );
#273 = EDGE_CURVE( '', #285, #284, #311, .T. );
#274 = FILL_AREA_STYLE( '', ( #312 ) );
#275 = FILL_AREA_STYLE( '', ( #313 ) );
#276 = FILL_AREA_STYLE( '', ( #314 ) );
#277 = FILL_AREA_STYLE( '', ( #315 ) );
#278 = FILL_AREA_STYLE_COLOUR( '', #316 );
#279 = VERTEX_POINT( '', #317 );
#280 = VERTEX_POINT( '', #318 );
#281 = CIRCLE( '', #319, 21.5000000000000 );
#282 = CIRCLE( '', #320, 21.5000000000000 );
#283 = FILL_AREA_STYLE_COLOUR( '', #321 );
#284 = VERTEX_POINT( '', #322 );
#285 = VERTEX_POINT( '', #323 );
#286 = ELLIPSE( '', #324, 15.3338895041000, 14.1666666667000 );
#287 = CIRCLE( '', #325, 14.1666666667000 );
#288 = VERTEX_POINT( '', #326 );
#289 = CIRCLE( '', #327, 14.1666666667000 );
#290 = FILL_AREA_STYLE_COLOUR( '', #328 );
#291 = VERTEX_POINT( '', #329 );
#292 = CIRCLE( '', #330, 16.0000000000000 );
#293 = FILL_AREA_STYLE_COLOUR( '', #331 );
#294 = VERTEX_POINT( '', #332 );
#295 = CIRCLE( '', #333, 16.0000000000000 );
#296 = VERTEX_POINT( '', #334 );
#297 = CIRCLE( '', #335, 21.5000000000000 );
#298 = FILL_AREA_STYLE_COLOUR( '', #336 );
#299 = VERTEX_POINT( '', #337 );
#300 = CIRCLE( '', #338, 21.5000000000000 );
#301 = ELLIPSE( '', #339, 23.2714323063000, 21.5000000000000 );
#302 = FILL_AREA_STYLE_COLOUR( '', #340 );
#303 = FILL_AREA_STYLE_COLOUR( '', #341 );
#304 = VERTEX_POINT( '', #342 );
#305 = CIRCLE( '', #343, 16.0000000000000 );
#306 = VERTEX_POINT( '', #344 );
#307 = CIRCLE( '', #345, 16.0000000000000 );
#308 = FILL_AREA_STYLE_COLOUR( '', #346 );
#309 = VERTEX_POINT( '', #347 );
#310 = CIRCLE( '', #348, 14.1666666667000 );
#311 = CIRCLE( '', #349, 14.1666666667000 );
#312 = FILL_AREA_STYLE_COLOUR( '', #350 );
#313 = FILL_AREA_STYLE_COLOUR( '', #351 );
#314 = FILL_AREA_STYLE_COLOUR( '', #352 );
#315 = FILL_AREA_STYLE_COLOUR( '', #353 );
#316 = COLOUR_RGB( '', 0.689999997600000, 0.689999997600000, 0.689999997600000 );
#317 = CARTESIAN_POINT( '', ( 1.92592994438724E-31, 21.5000000000000, 10.5000000000000 ) );
#318 = CARTESIAN_POINT( '', ( 1.73472347597681E-15, -21.5000000000000, 10.5000000000000 ) );
#319 = AXIS2_PLACEMENT_3D( '', #354, #355, #356 );
#320 = AXIS2_PLACEMENT_3D( '', #357, #358, #359 );
#321 = COLOUR_RGB( '', 0.689999997600000, 0.689999997600000, 0.689999997600000 );
#322 = CARTESIAN_POINT( '', ( -6.10235291632616E-15, -14.1666666666667, 10.5000000000000 ) );
#323 = CARTESIAN_POINT( '', ( -1.52558822908154E-15, 14.1666666666667, 10.5000000000000 ) );
#324 = AXIS2_PLACEMENT_3D( '', #360, #361, #362 );
#325 = AXIS2_PLACEMENT_3D( '', #363, #364, #365 );
#326 = CARTESIAN_POINT( '', ( 14.1666666666667, 0.000000000000000, 0.000000000000000 ) );
#327 = AXIS2_PLACEMENT_3D( '', #366, #367, #368 );
#328 = COLOUR_RGB( '', 0.689999997600000, 0.689999997600000, 0.689999997600000 );
#329 = CARTESIAN_POINT( '', ( 16.0000000000000, 0.000000000000000, 3.46944695195361E-15 ) );
#330 = AXIS2_PLACEMENT_3D( '', #369, #370, #371 );
#331 = COLOUR_RGB( '', 0.689999997600000, 0.689999997600000, 0.689999997600000 );
#332 = CARTESIAN_POINT( '', ( 16.0000000000000, 0.000000000000000, -20.0000000000000 ) );
#333 = AXIS2_PLACEMENT_3D( '', #372, #373, #374 );
#334 = CARTESIAN_POINT( '', ( 21.5000000000000, 0.000000000000000, -20.0000000000000 ) );
#335 = AXIS2_PLACEMENT_3D( '', #375, #376, #377 );
#336 = COLOUR_RGB( '', 0.689999997600000, 0.689999997600000, 0.689999997600000 );
#337 = CARTESIAN_POINT( '', ( 36.7695526217005, 0.000000000000000, 16.8639610306789 ) );
#338 = AXIS2_PLACEMENT_3D( '', #378, #379, #380 );
#339 = AXIS2_PLACEMENT_3D( '', #381, #382, #383 );
#340 = COLOUR_RGB( '', 0.689999997600000, 0.689999997600000, 0.689999997600000 );
#341 = COLOUR_RGB( '', 0.689999997600000, 0.689999997600000, 0.689999997600000 );
#342 = CARTESIAN_POINT( '', ( 10.2530483272049, 0.000000000000000, 43.3804653251745 ) );
#343 = AXIS2_PLACEMENT_3D( '', #384, #385, #386 );
#344 = CARTESIAN_POINT( '', ( 18.7383297014435, 0.000000000000000, 6.61091270347399 ) );
#345 = AXIS2_PLACEMENT_3D( '', #387, #388, #389 );
#346 = COLOUR_RGB( '', 0.689999997600000, 0.689999997600000, 0.689999997600000 );
#347 = CARTESIAN_POINT( '', ( 17.4419672692682, 0.000000000000000, 7.90727513564932 ) );
#348 = AXIS2_PLACEMENT_3D( '', #390, #391, #392 );
#349 = AXIS2_PLACEMENT_3D( '', #393, #394, #395 );
#350 = COLOUR_RGB( '', 0.689999997600000, 0.689999997600000, 0.689999997600000 );
#351 = COLOUR_RGB( '', 0.689999997600000, 0.689999997600000, 0.689999997600000 );
#352 = COLOUR_RGB( '', 0.689999997600000, 0.689999997600000, 0.689999997600000 );
#353 = COLOUR_RGB( '', 0.689999997600000, 0.689999997600000, 0.689999997600000 );
#354 = CARTESIAN_POINT( '', ( 0.000000000000000, 0.000000000000000, 10.5000000000000 ) );
#355 = DIRECTION( '', ( 0.000000000000000, 0.000000000000000, 1.00000000000000 ) );
#356 = DIRECTION( '', ( 1.00000000000000, 0.000000000000000, 0.000000000000000 ) );
#357 = CARTESIAN_POINT( '', ( -1.73472347597681E-15, 0.000000000000000, 10.5000000000000 ) );
#358 = DIRECTION( '', ( 0.707106781186547, -0.000000000000000, 0.707106781186548 ) );
#359 = DIRECTION( '', ( 0.707106781186548, 0.000000000000000, -0.707106781186547 ) );
#360 = CARTESIAN_POINT( '', ( 0.000000000000000, 0.000000000000000, 10.5000000000000 ) );
#361 = DIRECTION( '', ( 0.382683432365090, 0.000000000000000, 0.923879532511287 ) );
#362 = DIRECTION( '', ( -0.923879532511287, 0.000000000000000, 0.382683432365090 ) );
#363 = CARTESIAN_POINT( '', ( 0.000000000000000, 0.000000000000000, 10.5000000000000 ) );
#364 = DIRECTION( '', ( 0.000000000000000, -0.000000000000000, 1.00000000000000 ) );
#365 = DIRECTION( '', ( 1.00000000000000, 0.000000000000000, 0.000000000000000 ) );
#366 = CARTESIAN_POINT( '', ( 0.000000000000000, 0.000000000000000, 0.000000000000000 ) );
#367 = DIRECTION( '', ( 0.000000000000000, -0.000000000000000, 1.00000000000000 ) );
#368 = DIRECTION( '', ( 1.00000000000000, 0.000000000000000, 0.000000000000000 ) );
#369 = CARTESIAN_POINT( '', ( 0.000000000000000, 0.000000000000000, 3.46944695195361E-15 ) );
#370 = DIRECTION( '', ( 0.000000000000000, -0.000000000000000, 1.00000000000000 ) );
#371 = DIRECTION( '', ( 1.00000000000000, 0.000000000000000, 0.000000000000000 ) );
#372 = CARTESIAN_POINT( '', ( 0.000000000000000, 0.000000000000000, -20.0000000000000 ) );
#373 = DIRECTION( '', ( 0.000000000000000, 0.000000000000000, 1.00000000000000 ) );
#374 = DIRECTION( '', ( 1.00000000000000, 0.000000000000000, -0.000000000000000 ) );
#375 = CARTESIAN_POINT( '', ( 0.000000000000000, 0.000000000000000, -20.0000000000000 ) );
#376 = DIRECTION( '', ( 0.000000000000000, 0.000000000000000, 1.00000000000000 ) );
#377 = DIRECTION( '', ( 1.00000000000000, 0.000000000000000, 0.000000000000000 ) );
#378 = CARTESIAN_POINT( '', ( 21.5667568261897, 0.000000000000000, 32.0667568261897 ) );
#379 = DIRECTION( '', ( 0.707106781186548, -0.000000000000000, 0.707106781186548 ) );
#380 = DIRECTION( '', ( 0.707106781186547, 0.000000000000000, -0.707106781186547 ) );
#381 = CARTESIAN_POINT( '', ( 1.73472347597681E-15, 0.000000000000000, 10.5000000000000 ) );
#382 = DIRECTION( '', ( -0.382683432365090, 0.000000000000000, -0.923879532511287 ) );
#383 = DIRECTION( '', ( 0.923879532511287, 0.000000000000000, -0.382683432365090 ) );
#384 = CARTESIAN_POINT( '', ( 21.5667568261897, 0.000000000000000, 32.0667568261897 ) );
#385 = DIRECTION( '', ( -0.707106781186547, 0.000000000000000, -0.707106781186548 ) );
#386 = DIRECTION( '', ( -0.707106781186548, 0.000000000000000, 0.707106781186547 ) );
#387 = CARTESIAN_POINT( '', ( 7.42462120245874, 0.000000000000000, 17.9246212024587 ) );
#388 = DIRECTION( '', ( 0.707106781186548, -0.000000000000000, 0.707106781186548 ) );
#389 = DIRECTION( '', ( 0.707106781186547, 0.000000000000000, -0.707106781186547 ) );
#390 = CARTESIAN_POINT( '', ( 7.42462120245874, 0.000000000000000, 17.9246212024587 ) );
#391 = DIRECTION( '', ( 0.707106781186548, -0.000000000000000, 0.707106781186548 ) );
#392 = DIRECTION( '', ( 0.707106781186547, 0.000000000000000, -0.707106781186547 ) );
#393 = CARTESIAN_POINT( '', ( -7.80625564189563E-15, 0.000000000000000, 10.5000000000000 ) );
#394 = DIRECTION( '', ( 0.707106781186548, -0.000000000000000, 0.707106781186548 ) );
#395 = DIRECTION( '', ( 0.707106781186548, 0.000000000000000, -0.707106781186548 ) );
ENDSEC;
END-ISO-10303-21;
