ISO-10303-21;
HEADER;
/* Generated by software containing ST-Developer
 * from STEP Tools, Inc. (www.steptools.com) 
 */

FILE_DESCRIPTION(
/* description */ (''),
/* implementation_level */ '2;1');

FILE_NAME(
/* name */ 'C:\\Users\\mdebiase\\Desktop\\baricentro\\RIV020016.ipt.st
p',
/* time_stamp */ '2014-05-27T15:24:42+02:00',
/* author */ ('bfaro'),
/* organization */ (''),
/* preprocessor_version */ 'ST-DEVELOPER v15.2',
/* originating_system */ 'Autodesk Inventor 2014',
/* authorisation */ '');

FILE_SCHEMA (('AUTOMOTIVE_DESIGN { 1 0 10303 214 3 1 1 }'));
ENDSEC;

DATA;
#10=SHAPE_REPRESENTATION_RELATIONSHIP('SRR','None',#229,#11);
#11=ADVANCED_BREP_SHAPE_REPRESENTATION($,(#124),#220);
#12=STYLED_ITEM($,(#237),#124);
#13=TOROIDAL_SURFACE($,#133,10.25,0.75);
#14=TOROIDAL_SURFACE($,#137,26.4539930555556,18.760925215351);
#15=PLANE($,#129);
#16=PLANE($,#135);
#17=PLANE($,#141);
#18=PLANE($,#145);
#19=FACE_BOUND($,#40,.T.);
#20=FACE_BOUND($,#42,.T.);
#21=FACE_BOUND($,#44,.T.);
#22=FACE_BOUND($,#46,.T.);
#23=FACE_BOUND($,#47,.T.);
#24=FACE_BOUND($,#48,.T.);
#25=FACE_BOUND($,#50,.T.);
#26=FACE_BOUND($,#52,.T.);
#27=FACE_BOUND($,#53,.T.);
#28=FACE_BOUND($,#54,.T.);
#29=FACE_BOUND($,#56,.T.);
#30=FACE_BOUND($,#58,.T.);
#31=FACE_OUTER_BOUND($,#39,.T.);
#32=FACE_OUTER_BOUND($,#41,.T.);
#33=FACE_OUTER_BOUND($,#43,.T.);
#34=FACE_OUTER_BOUND($,#45,.T.);
#35=FACE_OUTER_BOUND($,#49,.T.);
#36=FACE_OUTER_BOUND($,#51,.T.);
#37=FACE_OUTER_BOUND($,#55,.T.);
#38=FACE_OUTER_BOUND($,#57,.T.);
#39=EDGE_LOOP($,(#89));
#40=EDGE_LOOP($,(#90));
#41=EDGE_LOOP($,(#91));
#42=EDGE_LOOP($,(#92));
#43=EDGE_LOOP($,(#93));
#44=EDGE_LOOP($,(#94));
#45=EDGE_LOOP($,(#95));
#46=EDGE_LOOP($,(#96));
#47=EDGE_LOOP($,(#97));
#48=EDGE_LOOP($,(#98));
#49=EDGE_LOOP($,(#99));
#50=EDGE_LOOP($,(#100));
#51=EDGE_LOOP($,(#101));
#52=EDGE_LOOP($,(#102));
#53=EDGE_LOOP($,(#103));
#54=EDGE_LOOP($,(#104));
#55=EDGE_LOOP($,(#105));
#56=EDGE_LOOP($,(#106));
#57=EDGE_LOOP($,(#107));
#58=EDGE_LOOP($,(#108));
#59=CIRCLE($,#127,10.);
#60=CIRCLE($,#128,10.);
#61=CIRCLE($,#130,11.);
#62=CIRCLE($,#132,11.);
#63=CIRCLE($,#134,10.25);
#64=CIRCLE($,#136,9.00000000000001);
#65=CIRCLE($,#138,8.00000000000001);
#66=CIRCLE($,#140,8.00000000000001);
#67=CIRCLE($,#142,7.50000000000001);
#68=CIRCLE($,#144,7.5);
#69=VERTEX_POINT($,#190);
#70=VERTEX_POINT($,#192);
#71=VERTEX_POINT($,#195);
#72=VERTEX_POINT($,#198);
#73=VERTEX_POINT($,#201);
#74=VERTEX_POINT($,#204);
#75=VERTEX_POINT($,#207);
#76=VERTEX_POINT($,#210);
#77=VERTEX_POINT($,#213);
#78=VERTEX_POINT($,#216);
#79=EDGE_CURVE($,#69,#69,#59,.T.);
#80=EDGE_CURVE($,#70,#70,#60,.T.);
#81=EDGE_CURVE($,#71,#71,#61,.T.);
#82=EDGE_CURVE($,#72,#72,#62,.T.);
#83=EDGE_CURVE($,#73,#73,#63,.T.);
#84=EDGE_CURVE($,#74,#74,#64,.T.);
#85=EDGE_CURVE($,#75,#75,#65,.T.);
#86=EDGE_CURVE($,#76,#76,#66,.T.);
#87=EDGE_CURVE($,#77,#77,#67,.T.);
#88=EDGE_CURVE($,#78,#78,#68,.T.);
#89=ORIENTED_EDGE($,*,*,#79,.F.);
#90=ORIENTED_EDGE($,*,*,#80,.T.);
#91=ORIENTED_EDGE($,*,*,#81,.F.);
#92=ORIENTED_EDGE($,*,*,#79,.T.);
#93=ORIENTED_EDGE($,*,*,#82,.F.);
#94=ORIENTED_EDGE($,*,*,#81,.T.);
#95=ORIENTED_EDGE($,*,*,#83,.F.);
#96=ORIENTED_EDGE($,*,*,#82,.T.);
#97=ORIENTED_EDGE($,*,*,#84,.F.);
#98=ORIENTED_EDGE($,*,*,#83,.T.);
#99=ORIENTED_EDGE($,*,*,#85,.F.);
#100=ORIENTED_EDGE($,*,*,#84,.T.);
#101=ORIENTED_EDGE($,*,*,#86,.F.);
#102=ORIENTED_EDGE($,*,*,#85,.T.);
#103=ORIENTED_EDGE($,*,*,#87,.F.);
#104=ORIENTED_EDGE($,*,*,#86,.T.);
#105=ORIENTED_EDGE($,*,*,#88,.F.);
#106=ORIENTED_EDGE($,*,*,#87,.T.);
#107=ORIENTED_EDGE($,*,*,#80,.F.);
#108=ORIENTED_EDGE($,*,*,#88,.T.);
#109=CYLINDRICAL_SURFACE($,#126,10.);
#110=CYLINDRICAL_SURFACE($,#131,11.);
#111=CYLINDRICAL_SURFACE($,#139,8.00000000000001);
#112=CYLINDRICAL_SURFACE($,#143,7.5);
#113=ADVANCED_FACE($,(#31,#19),#109,.T.);
#114=ADVANCED_FACE($,(#32,#20),#15,.T.);
#115=ADVANCED_FACE($,(#33,#21),#110,.T.);
#116=ADVANCED_FACE($,(#34,#22),#13,.T.);
#117=ADVANCED_FACE($,(#23,#24),#16,.T.);
#118=ADVANCED_FACE($,(#35,#25),#14,.T.);
#119=ADVANCED_FACE($,(#36,#26),#111,.F.);
#120=ADVANCED_FACE($,(#27,#28),#17,.T.);
#121=ADVANCED_FACE($,(#37,#29),#112,.F.);
#122=ADVANCED_FACE($,(#38,#30),#18,.T.);
#123=CLOSED_SHELL($,(#113,#114,#115,#116,#117,#118,#119,#120,#121,#122));
#124=MANIFOLD_SOLID_BREP('Solido1',#123);
#125=AXIS2_PLACEMENT_3D('placement',#188,#146,#147);
#126=AXIS2_PLACEMENT_3D($,#189,#148,#149);
#127=AXIS2_PLACEMENT_3D($,#191,#150,#151);
#128=AXIS2_PLACEMENT_3D($,#193,#152,#153);
#129=AXIS2_PLACEMENT_3D($,#194,#154,#155);
#130=AXIS2_PLACEMENT_3D($,#196,#156,#157);
#131=AXIS2_PLACEMENT_3D($,#197,#158,#159);
#132=AXIS2_PLACEMENT_3D($,#199,#160,#161);
#133=AXIS2_PLACEMENT_3D($,#200,#162,#163);
#134=AXIS2_PLACEMENT_3D($,#202,#164,#165);
#135=AXIS2_PLACEMENT_3D($,#203,#166,#167);
#136=AXIS2_PLACEMENT_3D($,#205,#168,#169);
#137=AXIS2_PLACEMENT_3D($,#206,#170,#171);
#138=AXIS2_PLACEMENT_3D($,#208,#172,#173);
#139=AXIS2_PLACEMENT_3D($,#209,#174,#175);
#140=AXIS2_PLACEMENT_3D($,#211,#176,#177);
#141=AXIS2_PLACEMENT_3D($,#212,#178,#179);
#142=AXIS2_PLACEMENT_3D($,#214,#180,#181);
#143=AXIS2_PLACEMENT_3D($,#215,#182,#183);
#144=AXIS2_PLACEMENT_3D($,#217,#184,#185);
#145=AXIS2_PLACEMENT_3D($,#218,#186,#187);
#146=DIRECTION('axis',(0.,0.,1.));
#147=DIRECTION('refdir',(1.,0.,0.));
#148=DIRECTION('center_axis',(0.,0.,1.));
#149=DIRECTION('ref_axis',(0.,-1.,0.));
#150=DIRECTION('center_axis',(0.,0.,1.));
#151=DIRECTION('ref_axis',(0.,-1.,0.));
#152=DIRECTION('center_axis',(0.,0.,1.));
#153=DIRECTION('ref_axis',(0.,-1.,0.));
#154=DIRECTION('center_axis',(0.,0.,-1.));
#155=DIRECTION('ref_axis',(-1.,0.,0.));
#156=DIRECTION('center_axis',(0.,0.,1.));
#157=DIRECTION('ref_axis',(0.,-1.,0.));
#158=DIRECTION('center_axis',(0.,0.,1.));
#159=DIRECTION('ref_axis',(0.,-1.,0.));
#160=DIRECTION('center_axis',(0.,0.,1.));
#161=DIRECTION('ref_axis',(0.,-1.,0.));
#162=DIRECTION('center_axis',(0.,0.,1.));
#163=DIRECTION('ref_axis',(1.,0.,0.));
#164=DIRECTION('center_axis',(0.,0.,1.));
#165=DIRECTION('ref_axis',(0.,-1.,0.));
#166=DIRECTION('center_axis',(0.,0.,1.));
#167=DIRECTION('ref_axis',(1.,0.,0.));
#168=DIRECTION('center_axis',(0.,0.,1.));
#169=DIRECTION('ref_axis',(0.,-1.,0.));
#170=DIRECTION('center_axis',(0.,0.,1.));
#171=DIRECTION('ref_axis',(1.,0.,0.));
#172=DIRECTION('center_axis',(0.,0.,1.));
#173=DIRECTION('ref_axis',(0.,-1.,0.));
#174=DIRECTION('center_axis',(0.,0.,1.));
#175=DIRECTION('ref_axis',(0.,-1.,0.));
#176=DIRECTION('center_axis',(0.,0.,1.));
#177=DIRECTION('ref_axis',(0.,-1.,0.));
#178=DIRECTION('center_axis',(0.,0.,1.));
#179=DIRECTION('ref_axis',(1.,0.,0.));
#180=DIRECTION('center_axis',(0.,0.,1.));
#181=DIRECTION('ref_axis',(0.,-1.,0.));
#182=DIRECTION('center_axis',(0.,0.,1.));
#183=DIRECTION('ref_axis',(0.,-1.,0.));
#184=DIRECTION('center_axis',(0.,0.,1.));
#185=DIRECTION('ref_axis',(0.,-1.,0.));
#186=DIRECTION('center_axis',(0.,0.,-1.));
#187=DIRECTION('ref_axis',(-1.,0.,0.));
#188=CARTESIAN_POINT('',(0.,0.,0.));
#189=CARTESIAN_POINT('Origin',(0.,0.,-10.385423));
#190=CARTESIAN_POINT('',(0.,-10.,-2.385423));
#191=CARTESIAN_POINT('Origin',(0.,0.,-2.385423));
#192=CARTESIAN_POINT('',(0.,-10.,-18.385423));
#193=CARTESIAN_POINT('Origin',(0.,0.,-18.385423));
#194=CARTESIAN_POINT('Origin',(0.,-10.5,-2.385423));
#195=CARTESIAN_POINT('',(0.,-11.,-2.385423));
#196=CARTESIAN_POINT('Origin',(0.,0.,-2.385423));
#197=CARTESIAN_POINT('Origin',(0.,0.,6.739577));
#198=CARTESIAN_POINT('',(0.,-11.,15.864577));
#199=CARTESIAN_POINT('Origin',(0.,0.,15.864577));
#200=CARTESIAN_POINT('Origin',(0.,0.,15.864577));
#201=CARTESIAN_POINT('',(0.,-10.25,16.614577));
#202=CARTESIAN_POINT('Origin',(0.,0.,16.614577));
#203=CARTESIAN_POINT('Origin',(0.,-9.62500000000001,16.614577));
#204=CARTESIAN_POINT('',(0.,-9.00000000000001,16.614577));
#205=CARTESIAN_POINT('Origin',(0.,0.,16.614577));
#206=CARTESIAN_POINT('Origin',(0.,0.,9.7348646984127));
#207=CARTESIAN_POINT('',(0.,-8.00000000000001,13.114577));
#208=CARTESIAN_POINT('Origin',(0.,0.,13.114577));
#209=CARTESIAN_POINT('Origin',(0.,0.,7.864577));
#210=CARTESIAN_POINT('',(0.,-8.00000000000001,2.614577));
#211=CARTESIAN_POINT('Origin',(0.,0.,2.614577));
#212=CARTESIAN_POINT('Origin',(0.,-7.75000000000001,2.614577));
#213=CARTESIAN_POINT('',(0.,-7.50000000000001,2.614577));
#214=CARTESIAN_POINT('Origin',(0.,0.,2.614577));
#215=CARTESIAN_POINT('Origin',(0.,0.,-7.885423));
#216=CARTESIAN_POINT('',(0.,-7.5,-18.385423));
#217=CARTESIAN_POINT('Origin',(0.,0.,-18.385423));
#218=CARTESIAN_POINT('Origin',(0.,-8.75,-18.385423));
#219=UNCERTAINTY_MEASURE_WITH_UNIT(LENGTH_MEASURE(0.01),#221,
'DISTANCE_ACCURACY_VALUE',
'Maximum model space distance between geometric entities at asserted c
onnectivities');
#220=(
GEOMETRIC_REPRESENTATION_CONTEXT(3)
GLOBAL_UNCERTAINTY_ASSIGNED_CONTEXT((#219))
GLOBAL_UNIT_ASSIGNED_CONTEXT((#221,#224,#222))
REPRESENTATION_CONTEXT('','3D')
);
#221=(
LENGTH_UNIT()
NAMED_UNIT(*)
SI_UNIT(.MILLI.,.METRE.)
);
#222=(
NAMED_UNIT(*)
SI_UNIT($,.STERADIAN.)
SOLID_ANGLE_UNIT()
);
#223=DIMENSIONAL_EXPONENTS(0.,0.,0.,0.,0.,0.,0.);
#224=(
CONVERSION_BASED_UNIT('degree',#226)
NAMED_UNIT(#223)
PLANE_ANGLE_UNIT()
);
#225=(
NAMED_UNIT(*)
PLANE_ANGLE_UNIT()
SI_UNIT($,.RADIAN.)
);
#226=PLANE_ANGLE_MEASURE_WITH_UNIT(PLANE_ANGLE_MEASURE(0.01745329252),#225);
#227=SHAPE_DEFINITION_REPRESENTATION(#228,#229);
#228=PRODUCT_DEFINITION_SHAPE('',$,#231);
#229=SHAPE_REPRESENTATION('',(#125),#220);
#230=PRODUCT_DEFINITION_CONTEXT('3D Mechanical Parts',#234,'design');
#231=PRODUCT_DEFINITION('RIV020016','RIV020016',#232,#230);
#232=PRODUCT_DEFINITION_FORMATION('',$,#236);
#233=APPLICATION_PROTOCOL_DEFINITION('international standard',
'automotive_design',2009,#234);
#234=APPLICATION_CONTEXT(
'Core Data for Automotive Mechanical Design Process');
#235=PRODUCT_CONTEXT('3D Mechanical Parts',#234,'mechanical');
#236=PRODUCT('RIV020016','RIV020016',$,(#235));
#237=PRESENTATION_STYLE_ASSIGNMENT((#238));
#238=SURFACE_STYLE_USAGE(.BOTH.,#239);
#239=SURFACE_SIDE_STYLE($,(#240));
#240=SURFACE_STYLE_FILL_AREA(#241);
#241=FILL_AREA_STYLE($,(#242));
#242=FILL_AREA_STYLE_COLOUR($,#243);
#243=COLOUR_RGB('',0.509803921568627,0.509803921568627,0.588235294117647);
ENDSEC;
END-ISO-10303-21;
