ISO-10303-21;
HEADER;
/* Generated by software containing ST-Developer
 * from STEP Tools, Inc. (www.steptools.com) 
 */

FILE_DESCRIPTION(
/* description */ (''),
/* implementation_level */ '2;1');

FILE_NAME(
/* name */ 
'Q:\\Ric010\\FF7\\FIPlastiCAD\\FIP\\Lavoro\\PVC Fittings\\PVC Fittings
 STEP\\DIFV\\DIFV025020012.ipt.stp',
/* time_stamp */ '2013-10-01T14:36:46+02:00',
/* author */ ('bfaro'),
/* organization */ (''),
/* preprocessor_version */ 'ST-DEVELOPER v15.2',
/* originating_system */ 'Autodesk Inventor 2014',
/* authorisation */ '');

FILE_SCHEMA (('AUTOMOTIVE_DESIGN { 1 0 10303 214 3 1 1 }'));
ENDSEC;

DATA;
#10=SHAPE_REPRESENTATION_RELATIONSHIP('SRR','None',#584,#11);
#11=ADVANCED_BREP_SHAPE_REPRESENTATION($,(#335),#575);
#12=STYLED_ITEM($,(#593),#329);
#13=STYLED_ITEM($,(#592),#335);
#14=CONICAL_SURFACE($,#362,15.70775,68.960472721108);
#15=CYLINDRICAL_SURFACE($,#350,10.85);
#16=CYLINDRICAL_SURFACE($,#355,12.5);
#17=CYLINDRICAL_SURFACE($,#360,17.);
#18=CYLINDRICAL_SURFACE($,#363,14.4155);
#19=CYLINDRICAL_SURFACE($,#366,9.3155);
#20=CYLINDRICAL_SURFACE($,#367,9.);
#21=CYLINDRICAL_SURFACE($,#371,10.);
#22=FACE_OUTER_BOUND($,#102,.T.);
#23=FACE_OUTER_BOUND($,#103,.T.);
#24=FACE_OUTER_BOUND($,#104,.T.);
#25=FACE_OUTER_BOUND($,#105,.T.);
#26=FACE_OUTER_BOUND($,#106,.T.);
#27=FACE_OUTER_BOUND($,#108,.T.);
#28=FACE_OUTER_BOUND($,#109,.T.);
#29=FACE_OUTER_BOUND($,#110,.T.);
#30=FACE_OUTER_BOUND($,#111,.T.);
#31=FACE_OUTER_BOUND($,#112,.T.);
#32=FACE_OUTER_BOUND($,#116,.T.);
#33=FACE_OUTER_BOUND($,#118,.T.);
#34=FACE_OUTER_BOUND($,#120,.T.);
#35=FACE_OUTER_BOUND($,#122,.T.);
#36=FACE_OUTER_BOUND($,#124,.T.);
#37=FACE_OUTER_BOUND($,#128,.T.);
#38=FACE_OUTER_BOUND($,#130,.T.);
#39=FACE_OUTER_BOUND($,#132,.T.);
#40=FACE_OUTER_BOUND($,#134,.T.);
#41=FACE_OUTER_BOUND($,#136,.T.);
#42=LINE($,#479,#58);
#43=LINE($,#481,#59);
#44=LINE($,#482,#60);
#45=LINE($,#489,#61);
#46=LINE($,#490,#62);
#47=LINE($,#497,#63);
#48=LINE($,#498,#64);
#49=LINE($,#505,#65);
#50=LINE($,#506,#66);
#51=LINE($,#509,#67);
#52=LINE($,#511,#68);
#53=LINE($,#513,#69);
#54=LINE($,#514,#70);
#55=LINE($,#522,#71);
#56=LINE($,#528,#72);
#57=LINE($,#534,#73);
#58=VECTOR($,#384,7.39204663780245);
#59=VECTOR($,#385,12.0121933088198);
#60=VECTOR($,#386,7.39204663780245);
#61=VECTOR($,#389,7.39204663780245);
#62=VECTOR($,#390,12.0121933088198);
#63=VECTOR($,#393,7.39204663780245);
#64=VECTOR($,#394,12.0121933088198);
#65=VECTOR($,#397,7.39204663780245);
#66=VECTOR($,#398,12.0121933088198);
#67=VECTOR($,#401,12.0121933088198);
#68=VECTOR($,#402,12.0121933088198);
#69=VECTOR($,#403,12.0121933088198);
#70=VECTOR($,#404,12.0121933088198);
#71=VECTOR($,#409,7.39204663780245);
#72=VECTOR($,#412,7.39204663780245);
#73=VECTOR($,#415,7.39204663780245);
#74=(
BOUNDED_CURVE()
B_SPLINE_CURVE(2,(#475,#476,#477),.UNSPECIFIED.,.F.,.F.)
B_SPLINE_CURVE_WITH_KNOTS((3,3),(0.262365032868363,1.52284924488103),
 .UNSPECIFIED.)
CURVE()
GEOMETRIC_REPRESENTATION_ITEM()
RATIONAL_B_SPLINE_CURVE((1.04322989338825,1.1291838997152,1.04322989338825))
REPRESENTATION_ITEM($)
);
#75=(
BOUNDED_CURVE()
B_SPLINE_CURVE(2,(#485,#486,#487),.UNSPECIFIED.,.F.,.F.)
B_SPLINE_CURVE_WITH_KNOTS((3,3),(0.262365032868361,1.52284924488103),
 .UNSPECIFIED.)
CURVE()
GEOMETRIC_REPRESENTATION_ITEM()
RATIONAL_B_SPLINE_CURVE((1.04322989338825,1.1291838997152,1.04322989338825))
REPRESENTATION_ITEM($)
);
#76=(
BOUNDED_CURVE()
B_SPLINE_CURVE(2,(#493,#494,#495),.UNSPECIFIED.,.F.,.F.)
B_SPLINE_CURVE_WITH_KNOTS((3,3),(0.262365032868362,1.52284924488103),
 .UNSPECIFIED.)
CURVE()
GEOMETRIC_REPRESENTATION_ITEM()
RATIONAL_B_SPLINE_CURVE((1.04322989338825,1.1291838997152,1.04322989338825))
REPRESENTATION_ITEM($)
);
#77=(
BOUNDED_CURVE()
B_SPLINE_CURVE(2,(#501,#502,#503),.UNSPECIFIED.,.F.,.F.)
B_SPLINE_CURVE_WITH_KNOTS((3,3),(0.262365032868363,1.52284924488103),
 .UNSPECIFIED.)
CURVE()
GEOMETRIC_REPRESENTATION_ITEM()
RATIONAL_B_SPLINE_CURVE((1.04322989338825,1.1291838997152,1.04322989338825))
REPRESENTATION_ITEM($)
);
#78=(
BOUNDED_CURVE()
B_SPLINE_CURVE(2,(#519,#520,#521),.UNSPECIFIED.,.F.,.F.)
B_SPLINE_CURVE_WITH_KNOTS((3,3),(0.262365032868363,1.52284924488103),
 .UNSPECIFIED.)
CURVE()
GEOMETRIC_REPRESENTATION_ITEM()
RATIONAL_B_SPLINE_CURVE((1.04322989338825,1.1291838997152,1.04322989338825))
REPRESENTATION_ITEM($)
);
#79=(
BOUNDED_CURVE()
B_SPLINE_CURVE(2,(#525,#526,#527),.UNSPECIFIED.,.F.,.F.)
B_SPLINE_CURVE_WITH_KNOTS((3,3),(0.262365032868364,1.52284924488103),
 .UNSPECIFIED.)
CURVE()
GEOMETRIC_REPRESENTATION_ITEM()
RATIONAL_B_SPLINE_CURVE((1.04322989338825,1.1291838997152,1.04322989338825))
REPRESENTATION_ITEM($)
);
#80=(
BOUNDED_CURVE()
B_SPLINE_CURVE(2,(#531,#532,#533),.UNSPECIFIED.,.F.,.F.)
B_SPLINE_CURVE_WITH_KNOTS((3,3),(0.262365032868363,1.52284924488103),
 .UNSPECIFIED.)
CURVE()
GEOMETRIC_REPRESENTATION_ITEM()
RATIONAL_B_SPLINE_CURVE((1.04322989338825,1.1291838997152,1.04322989338825))
REPRESENTATION_ITEM($)
);
#81=(
BOUNDED_CURVE()
B_SPLINE_CURVE(2,(#536,#537,#538),.UNSPECIFIED.,.F.,.F.)
B_SPLINE_CURVE_WITH_KNOTS((3,3),(0.262365032868364,1.52284924488103),
 .UNSPECIFIED.)
CURVE()
GEOMETRIC_REPRESENTATION_ITEM()
RATIONAL_B_SPLINE_CURVE((1.04322989338825,1.12918389971519,1.04322989338825))
REPRESENTATION_ITEM($)
);
#82=FACE_BOUND($,#100,.T.);
#83=FACE_BOUND($,#101,.T.);
#84=FACE_BOUND($,#107,.T.);
#85=FACE_BOUND($,#113,.T.);
#86=FACE_BOUND($,#114,.T.);
#87=FACE_BOUND($,#115,.T.);
#88=FACE_BOUND($,#117,.T.);
#89=FACE_BOUND($,#119,.T.);
#90=FACE_BOUND($,#121,.T.);
#91=FACE_BOUND($,#123,.T.);
#92=FACE_BOUND($,#125,.T.);
#93=FACE_BOUND($,#126,.T.);
#94=FACE_BOUND($,#127,.T.);
#95=FACE_BOUND($,#129,.T.);
#96=FACE_BOUND($,#131,.T.);
#97=FACE_BOUND($,#133,.T.);
#98=FACE_BOUND($,#135,.T.);
#99=FACE_BOUND($,#137,.T.);
#100=EDGE_LOOP($,(#220));
#101=EDGE_LOOP($,(#221));
#102=EDGE_LOOP($,(#222,#223,#224,#225));
#103=EDGE_LOOP($,(#226,#227,#228,#229));
#104=EDGE_LOOP($,(#230,#231,#232,#233));
#105=EDGE_LOOP($,(#234,#235,#236,#237));
#106=EDGE_LOOP($,(#238,#239,#240,#241,#242,#243,#244,#245));
#107=EDGE_LOOP($,(#246));
#108=EDGE_LOOP($,(#247,#248,#249,#250));
#109=EDGE_LOOP($,(#251,#252,#253,#254));
#110=EDGE_LOOP($,(#255,#256,#257,#258));
#111=EDGE_LOOP($,(#259,#260,#261,#262));
#112=EDGE_LOOP($,(#263));
#113=EDGE_LOOP($,(#264));
#114=EDGE_LOOP($,(#265));
#115=EDGE_LOOP($,(#266));
#116=EDGE_LOOP($,(#267));
#117=EDGE_LOOP($,(#268));
#118=EDGE_LOOP($,(#269));
#119=EDGE_LOOP($,(#270));
#120=EDGE_LOOP($,(#271));
#121=EDGE_LOOP($,(#272));
#122=EDGE_LOOP($,(#273,#274,#275,#276,#277,#278,#279,#280));
#123=EDGE_LOOP($,(#281));
#124=EDGE_LOOP($,(#282));
#125=EDGE_LOOP($,(#283));
#126=EDGE_LOOP($,(#284));
#127=EDGE_LOOP($,(#285));
#128=EDGE_LOOP($,(#286));
#129=EDGE_LOOP($,(#287));
#130=EDGE_LOOP($,(#288));
#131=EDGE_LOOP($,(#289));
#132=EDGE_LOOP($,(#290));
#133=EDGE_LOOP($,(#291));
#134=EDGE_LOOP($,(#292));
#135=EDGE_LOOP($,(#293));
#136=EDGE_LOOP($,(#294));
#137=EDGE_LOOP($,(#295));
#138=CIRCLE($,#338,9.);
#139=CIRCLE($,#339,9.3155);
#140=CIRCLE($,#345,14.4155);
#141=CIRCLE($,#351,10.85);
#142=CIRCLE($,#352,10.85);
#143=CIRCLE($,#354,9.3155);
#144=CIRCLE($,#356,12.5);
#145=CIRCLE($,#357,12.5);
#146=CIRCLE($,#359,17.);
#147=CIRCLE($,#361,17.);
#148=CIRCLE($,#364,14.4155);
#149=CIRCLE($,#368,9.);
#150=CIRCLE($,#370,10.);
#151=CIRCLE($,#372,10.);
#152=VERTEX_POINT($,#468);
#153=VERTEX_POINT($,#470);
#154=VERTEX_POINT($,#473);
#155=VERTEX_POINT($,#474);
#156=VERTEX_POINT($,#478);
#157=VERTEX_POINT($,#480);
#158=VERTEX_POINT($,#484);
#159=VERTEX_POINT($,#488);
#160=VERTEX_POINT($,#492);
#161=VERTEX_POINT($,#496);
#162=VERTEX_POINT($,#500);
#163=VERTEX_POINT($,#504);
#164=VERTEX_POINT($,#508);
#165=VERTEX_POINT($,#510);
#166=VERTEX_POINT($,#512);
#167=VERTEX_POINT($,#515);
#168=VERTEX_POINT($,#518);
#169=VERTEX_POINT($,#524);
#170=VERTEX_POINT($,#530);
#171=VERTEX_POINT($,#540);
#172=VERTEX_POINT($,#542);
#173=VERTEX_POINT($,#545);
#174=VERTEX_POINT($,#548);
#175=VERTEX_POINT($,#550);
#176=VERTEX_POINT($,#553);
#177=VERTEX_POINT($,#556);
#178=VERTEX_POINT($,#560);
#179=VERTEX_POINT($,#565);
#180=VERTEX_POINT($,#568);
#181=VERTEX_POINT($,#571);
#182=EDGE_CURVE($,#152,#152,#138,.T.);
#183=EDGE_CURVE($,#153,#153,#139,.T.);
#184=EDGE_CURVE($,#154,#155,#74,.T.);
#185=EDGE_CURVE($,#154,#156,#42,.T.);
#186=EDGE_CURVE($,#157,#156,#43,.T.);
#187=EDGE_CURVE($,#155,#157,#44,.T.);
#188=EDGE_CURVE($,#158,#154,#75,.T.);
#189=EDGE_CURVE($,#158,#159,#45,.T.);
#190=EDGE_CURVE($,#156,#159,#46,.T.);
#191=EDGE_CURVE($,#160,#158,#76,.T.);
#192=EDGE_CURVE($,#160,#161,#47,.T.);
#193=EDGE_CURVE($,#159,#161,#48,.T.);
#194=EDGE_CURVE($,#162,#160,#77,.T.);
#195=EDGE_CURVE($,#162,#163,#49,.T.);
#196=EDGE_CURVE($,#161,#163,#50,.T.);
#197=EDGE_CURVE($,#163,#164,#51,.T.);
#198=EDGE_CURVE($,#164,#165,#52,.T.);
#199=EDGE_CURVE($,#165,#166,#53,.T.);
#200=EDGE_CURVE($,#166,#157,#54,.T.);
#201=EDGE_CURVE($,#167,#167,#140,.T.);
#202=EDGE_CURVE($,#155,#168,#78,.T.);
#203=EDGE_CURVE($,#168,#166,#55,.T.);
#204=EDGE_CURVE($,#168,#169,#79,.T.);
#205=EDGE_CURVE($,#169,#165,#56,.T.);
#206=EDGE_CURVE($,#169,#170,#80,.T.);
#207=EDGE_CURVE($,#170,#164,#57,.T.);
#208=EDGE_CURVE($,#170,#162,#81,.T.);
#209=EDGE_CURVE($,#171,#171,#141,.T.);
#210=EDGE_CURVE($,#172,#172,#142,.T.);
#211=EDGE_CURVE($,#173,#173,#143,.T.);
#212=EDGE_CURVE($,#174,#174,#144,.T.);
#213=EDGE_CURVE($,#175,#175,#145,.T.);
#214=EDGE_CURVE($,#176,#176,#146,.T.);
#215=EDGE_CURVE($,#177,#177,#147,.T.);
#216=EDGE_CURVE($,#178,#178,#148,.T.);
#217=EDGE_CURVE($,#179,#179,#149,.T.);
#218=EDGE_CURVE($,#180,#180,#150,.T.);
#219=EDGE_CURVE($,#181,#181,#151,.T.);
#220=ORIENTED_EDGE($,*,*,#182,.F.);
#221=ORIENTED_EDGE($,*,*,#183,.F.);
#222=ORIENTED_EDGE($,*,*,#184,.F.);
#223=ORIENTED_EDGE($,*,*,#185,.T.);
#224=ORIENTED_EDGE($,*,*,#186,.F.);
#225=ORIENTED_EDGE($,*,*,#187,.F.);
#226=ORIENTED_EDGE($,*,*,#188,.F.);
#227=ORIENTED_EDGE($,*,*,#189,.T.);
#228=ORIENTED_EDGE($,*,*,#190,.F.);
#229=ORIENTED_EDGE($,*,*,#185,.F.);
#230=ORIENTED_EDGE($,*,*,#191,.F.);
#231=ORIENTED_EDGE($,*,*,#192,.T.);
#232=ORIENTED_EDGE($,*,*,#193,.F.);
#233=ORIENTED_EDGE($,*,*,#189,.F.);
#234=ORIENTED_EDGE($,*,*,#194,.F.);
#235=ORIENTED_EDGE($,*,*,#195,.T.);
#236=ORIENTED_EDGE($,*,*,#196,.F.);
#237=ORIENTED_EDGE($,*,*,#192,.F.);
#238=ORIENTED_EDGE($,*,*,#197,.T.);
#239=ORIENTED_EDGE($,*,*,#198,.T.);
#240=ORIENTED_EDGE($,*,*,#199,.T.);
#241=ORIENTED_EDGE($,*,*,#200,.T.);
#242=ORIENTED_EDGE($,*,*,#186,.T.);
#243=ORIENTED_EDGE($,*,*,#190,.T.);
#244=ORIENTED_EDGE($,*,*,#193,.T.);
#245=ORIENTED_EDGE($,*,*,#196,.T.);
#246=ORIENTED_EDGE($,*,*,#201,.F.);
#247=ORIENTED_EDGE($,*,*,#202,.F.);
#248=ORIENTED_EDGE($,*,*,#187,.T.);
#249=ORIENTED_EDGE($,*,*,#200,.F.);
#250=ORIENTED_EDGE($,*,*,#203,.F.);
#251=ORIENTED_EDGE($,*,*,#204,.F.);
#252=ORIENTED_EDGE($,*,*,#203,.T.);
#253=ORIENTED_EDGE($,*,*,#199,.F.);
#254=ORIENTED_EDGE($,*,*,#205,.F.);
#255=ORIENTED_EDGE($,*,*,#206,.F.);
#256=ORIENTED_EDGE($,*,*,#205,.T.);
#257=ORIENTED_EDGE($,*,*,#198,.F.);
#258=ORIENTED_EDGE($,*,*,#207,.F.);
#259=ORIENTED_EDGE($,*,*,#208,.F.);
#260=ORIENTED_EDGE($,*,*,#207,.T.);
#261=ORIENTED_EDGE($,*,*,#197,.F.);
#262=ORIENTED_EDGE($,*,*,#195,.F.);
#263=ORIENTED_EDGE($,*,*,#209,.T.);
#264=ORIENTED_EDGE($,*,*,#210,.F.);
#265=ORIENTED_EDGE($,*,*,#211,.F.);
#266=ORIENTED_EDGE($,*,*,#209,.F.);
#267=ORIENTED_EDGE($,*,*,#212,.F.);
#268=ORIENTED_EDGE($,*,*,#213,.T.);
#269=ORIENTED_EDGE($,*,*,#214,.F.);
#270=ORIENTED_EDGE($,*,*,#212,.T.);
#271=ORIENTED_EDGE($,*,*,#215,.F.);
#272=ORIENTED_EDGE($,*,*,#214,.T.);
#273=ORIENTED_EDGE($,*,*,#194,.T.);
#274=ORIENTED_EDGE($,*,*,#191,.T.);
#275=ORIENTED_EDGE($,*,*,#188,.T.);
#276=ORIENTED_EDGE($,*,*,#184,.T.);
#277=ORIENTED_EDGE($,*,*,#202,.T.);
#278=ORIENTED_EDGE($,*,*,#204,.T.);
#279=ORIENTED_EDGE($,*,*,#206,.T.);
#280=ORIENTED_EDGE($,*,*,#208,.T.);
#281=ORIENTED_EDGE($,*,*,#215,.T.);
#282=ORIENTED_EDGE($,*,*,#201,.T.);
#283=ORIENTED_EDGE($,*,*,#216,.F.);
#284=ORIENTED_EDGE($,*,*,#210,.T.);
#285=ORIENTED_EDGE($,*,*,#216,.T.);
#286=ORIENTED_EDGE($,*,*,#183,.T.);
#287=ORIENTED_EDGE($,*,*,#211,.T.);
#288=ORIENTED_EDGE($,*,*,#182,.T.);
#289=ORIENTED_EDGE($,*,*,#217,.F.);
#290=ORIENTED_EDGE($,*,*,#218,.F.);
#291=ORIENTED_EDGE($,*,*,#217,.T.);
#292=ORIENTED_EDGE($,*,*,#219,.F.);
#293=ORIENTED_EDGE($,*,*,#218,.T.);
#294=ORIENTED_EDGE($,*,*,#213,.F.);
#295=ORIENTED_EDGE($,*,*,#219,.T.);
#296=PLANE($,#337);
#297=PLANE($,#340);
#298=PLANE($,#341);
#299=PLANE($,#342);
#300=PLANE($,#343);
#301=PLANE($,#344);
#302=PLANE($,#346);
#303=PLANE($,#347);
#304=PLANE($,#348);
#305=PLANE($,#349);
#306=PLANE($,#353);
#307=PLANE($,#358);
#308=PLANE($,#365);
#309=PLANE($,#369);
#310=PLANE($,#373);
#311=ADVANCED_FACE($,(#82,#83),#296,.T.);
#312=ADVANCED_FACE($,(#22),#297,.T.);
#313=ADVANCED_FACE($,(#23),#298,.T.);
#314=ADVANCED_FACE($,(#24),#299,.T.);
#315=ADVANCED_FACE($,(#25),#300,.T.);
#316=ADVANCED_FACE($,(#26,#84),#301,.T.);
#317=ADVANCED_FACE($,(#27),#302,.T.);
#318=ADVANCED_FACE($,(#28),#303,.T.);
#319=ADVANCED_FACE($,(#29),#304,.T.);
#320=ADVANCED_FACE($,(#30),#305,.T.);
#321=ADVANCED_FACE($,(#31,#85),#15,.F.);
#322=ADVANCED_FACE($,(#86,#87),#306,.T.);
#323=ADVANCED_FACE($,(#32,#88),#16,.T.);
#324=ADVANCED_FACE($,(#33,#89),#307,.T.);
#325=ADVANCED_FACE($,(#34,#90),#17,.T.);
#326=ADVANCED_FACE($,(#35,#91),#14,.T.);
#327=ADVANCED_FACE($,(#36,#92),#18,.T.);
#328=ADVANCED_FACE($,(#93,#94),#308,.T.);
#329=ADVANCED_FACE($,(#37,#95),#19,.F.);
#330=ADVANCED_FACE($,(#38,#96),#20,.F.);
#331=ADVANCED_FACE($,(#39,#97),#309,.T.);
#332=ADVANCED_FACE($,(#40,#98),#21,.F.);
#333=ADVANCED_FACE($,(#41,#99),#310,.T.);
#334=CLOSED_SHELL($,(#311,#312,#313,#314,#315,#316,#317,#318,#319,#320,
#321,#322,#323,#324,#325,#326,#327,#328,#329,#330,#331,#332,#333));
#335=MANIFOLD_SOLID_BREP('Solido1',#334);
#336=AXIS2_PLACEMENT_3D('placement',#466,#374,#375);
#337=AXIS2_PLACEMENT_3D($,#467,#376,#377);
#338=AXIS2_PLACEMENT_3D($,#469,#378,#379);
#339=AXIS2_PLACEMENT_3D($,#471,#380,#381);
#340=AXIS2_PLACEMENT_3D($,#472,#382,#383);
#341=AXIS2_PLACEMENT_3D($,#483,#387,#388);
#342=AXIS2_PLACEMENT_3D($,#491,#391,#392);
#343=AXIS2_PLACEMENT_3D($,#499,#395,#396);
#344=AXIS2_PLACEMENT_3D($,#507,#399,#400);
#345=AXIS2_PLACEMENT_3D($,#516,#405,#406);
#346=AXIS2_PLACEMENT_3D($,#517,#407,#408);
#347=AXIS2_PLACEMENT_3D($,#523,#410,#411);
#348=AXIS2_PLACEMENT_3D($,#529,#413,#414);
#349=AXIS2_PLACEMENT_3D($,#535,#416,#417);
#350=AXIS2_PLACEMENT_3D($,#539,#418,#419);
#351=AXIS2_PLACEMENT_3D($,#541,#420,#421);
#352=AXIS2_PLACEMENT_3D($,#543,#422,#423);
#353=AXIS2_PLACEMENT_3D($,#544,#424,#425);
#354=AXIS2_PLACEMENT_3D($,#546,#426,#427);
#355=AXIS2_PLACEMENT_3D($,#547,#428,#429);
#356=AXIS2_PLACEMENT_3D($,#549,#430,#431);
#357=AXIS2_PLACEMENT_3D($,#551,#432,#433);
#358=AXIS2_PLACEMENT_3D($,#552,#434,#435);
#359=AXIS2_PLACEMENT_3D($,#554,#436,#437);
#360=AXIS2_PLACEMENT_3D($,#555,#438,#439);
#361=AXIS2_PLACEMENT_3D($,#557,#440,#441);
#362=AXIS2_PLACEMENT_3D($,#558,#442,#443);
#363=AXIS2_PLACEMENT_3D($,#559,#444,#445);
#364=AXIS2_PLACEMENT_3D($,#561,#446,#447);
#365=AXIS2_PLACEMENT_3D($,#562,#448,#449);
#366=AXIS2_PLACEMENT_3D($,#563,#450,#451);
#367=AXIS2_PLACEMENT_3D($,#564,#452,#453);
#368=AXIS2_PLACEMENT_3D($,#566,#454,#455);
#369=AXIS2_PLACEMENT_3D($,#567,#456,#457);
#370=AXIS2_PLACEMENT_3D($,#569,#458,#459);
#371=AXIS2_PLACEMENT_3D($,#570,#460,#461);
#372=AXIS2_PLACEMENT_3D($,#572,#462,#463);
#373=AXIS2_PLACEMENT_3D($,#573,#464,#465);
#374=DIRECTION('axis',(0.,0.,1.));
#375=DIRECTION('refdir',(1.,0.,0.));
#376=DIRECTION('center_axis',(0.,0.,1.));
#377=DIRECTION('ref_axis',(1.,0.,0.));
#378=DIRECTION('center_axis',(0.,0.,1.));
#379=DIRECTION('ref_axis',(0.,-1.,0.));
#380=DIRECTION('center_axis',(0.,0.,-1.));
#381=DIRECTION('ref_axis',(-1.,0.,0.));
#382=DIRECTION('center_axis',(0.38268343236509,-0.923879532511287,0.));
#383=DIRECTION('ref_axis',(0.923879532511287,0.38268343236509,0.));
#384=DIRECTION($,(0.,0.,1.));
#385=DIRECTION($,(0.923879532511287,0.38268343236509,0.));
#386=DIRECTION($,(0.,0.,1.));
#387=DIRECTION('center_axis',(0.923879532511287,-0.38268343236509,0.));
#388=DIRECTION('ref_axis',(0.38268343236509,0.923879532511287,0.));
#389=DIRECTION($,(0.,0.,1.));
#390=DIRECTION($,(0.38268343236509,0.923879532511287,0.));
#391=DIRECTION('center_axis',(0.923879532511287,0.38268343236509,0.));
#392=DIRECTION('ref_axis',(-0.38268343236509,0.923879532511287,0.));
#393=DIRECTION($,(0.,0.,1.));
#394=DIRECTION($,(-0.38268343236509,0.923879532511287,0.));
#395=DIRECTION('center_axis',(0.38268343236509,0.923879532511287,0.));
#396=DIRECTION('ref_axis',(-0.923879532511287,0.38268343236509,0.));
#397=DIRECTION($,(0.,0.,1.));
#398=DIRECTION($,(-0.923879532511287,0.38268343236509,0.));
#399=DIRECTION('center_axis',(0.,0.,1.));
#400=DIRECTION('ref_axis',(1.,0.,0.));
#401=DIRECTION($,(-0.923879532511287,-0.38268343236509,0.));
#402=DIRECTION($,(-0.38268343236509,-0.923879532511287,0.));
#403=DIRECTION($,(0.38268343236509,-0.923879532511287,0.));
#404=DIRECTION($,(0.923879532511287,-0.38268343236509,0.));
#405=DIRECTION('center_axis',(0.,0.,1.));
#406=DIRECTION('ref_axis',(0.,-1.,0.));
#407=DIRECTION('center_axis',(-0.38268343236509,-0.923879532511287,0.));
#408=DIRECTION('ref_axis',(0.923879532511287,-0.38268343236509,0.));
#409=DIRECTION($,(0.,0.,1.));
#410=DIRECTION('center_axis',(-0.923879532511287,-0.38268343236509,0.));
#411=DIRECTION('ref_axis',(0.38268343236509,-0.923879532511287,0.));
#412=DIRECTION($,(0.,0.,1.));
#413=DIRECTION('center_axis',(-0.923879532511287,0.38268343236509,0.));
#414=DIRECTION('ref_axis',(-0.38268343236509,-0.923879532511287,0.));
#415=DIRECTION($,(0.,0.,1.));
#416=DIRECTION('center_axis',(-0.38268343236509,0.923879532511287,0.));
#417=DIRECTION('ref_axis',(-0.923879532511287,-0.38268343236509,0.));
#418=DIRECTION('center_axis',(0.,0.,-1.));
#419=DIRECTION('ref_axis',(-1.,0.,0.));
#420=DIRECTION('center_axis',(0.,0.,-1.));
#421=DIRECTION('ref_axis',(-1.,0.,0.));
#422=DIRECTION('center_axis',(0.,0.,-1.));
#423=DIRECTION('ref_axis',(-1.,0.,0.));
#424=DIRECTION('center_axis',(0.,0.,1.));
#425=DIRECTION('ref_axis',(1.,0.,0.));
#426=DIRECTION('center_axis',(0.,0.,1.));
#427=DIRECTION('ref_axis',(0.,-1.,0.));
#428=DIRECTION('center_axis',(0.,0.,1.));
#429=DIRECTION('ref_axis',(0.,-1.,0.));
#430=DIRECTION('center_axis',(0.,0.,1.));
#431=DIRECTION('ref_axis',(0.,-1.,0.));
#432=DIRECTION('center_axis',(0.,0.,1.));
#433=DIRECTION('ref_axis',(0.,-1.,0.));
#434=DIRECTION('center_axis',(0.,0.,-1.));
#435=DIRECTION('ref_axis',(-1.,0.,0.));
#436=DIRECTION('center_axis',(0.,0.,1.));
#437=DIRECTION('ref_axis',(0.,-1.,0.));
#438=DIRECTION('center_axis',(0.,0.,1.));
#439=DIRECTION('ref_axis',(0.,-1.,0.));
#440=DIRECTION('center_axis',(0.,0.,1.));
#441=DIRECTION('ref_axis',(0.,-1.,0.));
#442=DIRECTION('center_axis',(0.,0.,-1.));
#443=DIRECTION('ref_axis',(0.,-1.,0.));
#444=DIRECTION('center_axis',(0.,0.,1.));
#445=DIRECTION('ref_axis',(0.,-1.,0.));
#446=DIRECTION('center_axis',(0.,0.,1.));
#447=DIRECTION('ref_axis',(0.,-1.,0.));
#448=DIRECTION('center_axis',(0.,0.,1.));
#449=DIRECTION('ref_axis',(1.,0.,0.));
#450=DIRECTION('center_axis',(0.,0.,1.));
#451=DIRECTION('ref_axis',(0.,-1.,0.));
#452=DIRECTION('center_axis',(0.,0.,1.));
#453=DIRECTION('ref_axis',(0.,-1.,0.));
#454=DIRECTION('center_axis',(0.,0.,1.));
#455=DIRECTION('ref_axis',(0.,-1.,0.));
#456=DIRECTION('center_axis',(0.,0.,-1.));
#457=DIRECTION('ref_axis',(-1.,0.,0.));
#458=DIRECTION('center_axis',(0.,0.,1.));
#459=DIRECTION('ref_axis',(0.,-1.,0.));
#460=DIRECTION('center_axis',(0.,0.,1.));
#461=DIRECTION('ref_axis',(0.,-1.,0.));
#462=DIRECTION('center_axis',(0.,0.,1.));
#463=DIRECTION('ref_axis',(0.,-1.,0.));
#464=DIRECTION('center_axis',(0.,0.,-1.));
#465=DIRECTION('ref_axis',(-1.,0.,0.));
#466=CARTESIAN_POINT('',(0.,0.,0.));
#467=CARTESIAN_POINT('Origin',(-4.92335597840432E-016,1.98633643680811E-016,
20.));
#468=CARTESIAN_POINT('',(-1.10218211923262E-015,9.,20.));
#469=CARTESIAN_POINT('Origin',(0.,0.,20.));
#470=CARTESIAN_POINT('',(9.3155,1.14081972574572E-015,20.));
#471=CARTESIAN_POINT('Origin',(0.,0.,20.));
#472=CARTESIAN_POINT('Origin',(6.21868595982666E-015,-15.6946869042397,
20.));
#473=CARTESIAN_POINT('',(11.0978195385876,-11.0978195385876,20.5079533621976));
#474=CARTESIAN_POINT('',(6.21868595982666E-015,-15.6946869042397,20.5079533621976));
#475=CARTESIAN_POINT('Ctrl Pts',(11.0978195385876,-11.0978195385876,20.5079533621975));
#476=CARTESIAN_POINT('Ctrl Pts',(5.54890976929251,-13.3962532214142,21.3920591657327));
#477=CARTESIAN_POINT('Ctrl Pts',(6.21868595982666E-015,-15.6946869042397,
20.5079533621976));
#478=CARTESIAN_POINT('',(11.0978195385876,-11.0978195385876,27.9));
#479=CARTESIAN_POINT($,(11.0978195385876,-11.0978195385876,20.));
#480=CARTESIAN_POINT('',(6.21868595982666E-015,-15.6946869042397,27.9));
#481=CARTESIAN_POINT($,(6.21868595982666E-015,-15.6946869042397,27.9));
#482=CARTESIAN_POINT($,(6.21868595982666E-015,-15.6946869042397,20.));
#483=CARTESIAN_POINT('Origin',(11.0978195385876,-11.0978195385876,20.));
#484=CARTESIAN_POINT('',(15.6946869042397,4.51012833625229E-015,20.5079533621976));
#485=CARTESIAN_POINT('Ctrl Pts',(15.6946869042397,4.51012833625229E-015,
20.5079533621976));
#486=CARTESIAN_POINT('Ctrl Pts',(13.3962532214131,-5.54890976929509,21.3920591657327));
#487=CARTESIAN_POINT('Ctrl Pts',(11.0978195385876,-11.0978195385876,20.5079533621976));
#488=CARTESIAN_POINT('',(15.6946869042397,4.44089209850063E-015,27.9));
#489=CARTESIAN_POINT($,(15.6946869042397,4.51012833625229E-015,20.));
#490=CARTESIAN_POINT($,(11.0978195385876,-11.0978195385876,27.9));
#491=CARTESIAN_POINT('Origin',(15.6946869042397,4.51012833625229E-015,20.));
#492=CARTESIAN_POINT('',(11.0978195385876,11.0978195385876,20.5079533621976));
#493=CARTESIAN_POINT('Ctrl Pts',(11.0978195385876,11.0978195385876,20.5079533621976));
#494=CARTESIAN_POINT('Ctrl Pts',(13.3962532214142,5.54890976929252,21.3920591657327));
#495=CARTESIAN_POINT('Ctrl Pts',(15.6946869042397,4.51012833625229E-015,
20.5079533621976));
#496=CARTESIAN_POINT('',(11.0978195385876,11.0978195385876,27.9));
#497=CARTESIAN_POINT($,(11.0978195385876,11.0978195385876,20.));
#498=CARTESIAN_POINT($,(15.6946869042397,4.51012833625229E-015,27.9));
#499=CARTESIAN_POINT('Origin',(11.0978195385876,11.0978195385876,20.));
#500=CARTESIAN_POINT('',(1.79481385048267E-016,15.6946869042397,20.5079533621976));
#501=CARTESIAN_POINT('Ctrl Pts',(1.79481385048267E-016,15.6946869042397,
20.5079533621975));
#502=CARTESIAN_POINT('Ctrl Pts',(5.5489097692951,13.3962532214131,21.3920591657327));
#503=CARTESIAN_POINT('Ctrl Pts',(11.0978195385876,11.0978195385876,20.5079533621976));
#504=CARTESIAN_POINT('',(1.79481385048267E-016,15.6946869042397,27.9));
#505=CARTESIAN_POINT($,(1.79481385048267E-016,15.6946869042397,20.));
#506=CARTESIAN_POINT($,(11.0978195385876,11.0978195385876,27.9));
#507=CARTESIAN_POINT('Origin',(3.03268454469222E-015,2.42614763575377E-015,
27.9));
#508=CARTESIAN_POINT('',(-11.0978195385876,11.0978195385876,27.9));
#509=CARTESIAN_POINT($,(1.79481385048267E-016,15.6946869042397,27.9));
#510=CARTESIAN_POINT('',(-15.6946869042397,-4.44089209850063E-015,27.9));
#511=CARTESIAN_POINT($,(-11.0978195385876,11.0978195385876,27.9));
#512=CARTESIAN_POINT('',(-11.0978195385876,-11.0978195385876,27.9));
#513=CARTESIAN_POINT($,(-15.6946869042397,-5.40297776433134E-015,27.9));
#514=CARTESIAN_POINT($,(-11.0978195385876,-11.0978195385876,27.9));
#515=CARTESIAN_POINT('',(-1.76538959331087E-015,14.4155,27.9));
#516=CARTESIAN_POINT('Origin',(0.,0.,27.9));
#517=CARTESIAN_POINT('Origin',(-11.0978195385876,-11.0978195385876,20.));
#518=CARTESIAN_POINT('',(-11.0978195385876,-11.0978195385876,20.5079533621976));
#519=CARTESIAN_POINT('Ctrl Pts',(6.21868595982666E-015,-15.6946869042397,
20.5079533621976));
#520=CARTESIAN_POINT('Ctrl Pts',(-5.54890976929508,-13.3962532214131,21.3920591657327));
#521=CARTESIAN_POINT('Ctrl Pts',(-11.0978195385876,-11.0978195385876,20.5079533621976));
#522=CARTESIAN_POINT($,(-11.0978195385876,-11.0978195385876,20.));
#523=CARTESIAN_POINT('Origin',(-15.6946869042397,-5.40297776433134E-015,
20.));
#524=CARTESIAN_POINT('',(-15.6946869042397,-5.40297776433134E-015,20.5079533621976));
#525=CARTESIAN_POINT('Ctrl Pts',(-11.0978195385876,-11.0978195385876,20.5079533621976));
#526=CARTESIAN_POINT('Ctrl Pts',(-13.3962532214142,-5.54890976929251,21.3920591657327));
#527=CARTESIAN_POINT('Ctrl Pts',(-15.6946869042397,-5.40297776433134E-015,
20.5079533621976));
#528=CARTESIAN_POINT($,(-15.6946869042397,-5.40297776433134E-015,20.));
#529=CARTESIAN_POINT('Origin',(-11.0978195385876,11.0978195385876,20.));
#530=CARTESIAN_POINT('',(-11.0978195385876,11.0978195385876,20.5079533621976));
#531=CARTESIAN_POINT('Ctrl Pts',(-15.6946869042397,-5.40297776433134E-015,
20.5079533621976));
#532=CARTESIAN_POINT('Ctrl Pts',(-13.3962532214131,5.54890976929509,21.3920591657328));
#533=CARTESIAN_POINT('Ctrl Pts',(-11.0978195385876,11.0978195385876,20.5079533621976));
#534=CARTESIAN_POINT($,(-11.0978195385876,11.0978195385876,20.));
#535=CARTESIAN_POINT('Origin',(1.79481385048267E-016,15.6946869042397,20.));
#536=CARTESIAN_POINT('Ctrl Pts',(-11.0978195385876,11.0978195385876,20.5079533621976));
#537=CARTESIAN_POINT('Ctrl Pts',(-5.54890976929251,13.3962532214142,21.3920591657327));
#538=CARTESIAN_POINT('Ctrl Pts',(1.79481385048267E-016,15.6946869042397,
20.5079533621975));
#539=CARTESIAN_POINT('Origin',(0.,0.,41.7));
#540=CARTESIAN_POINT('',(10.85,1.32874177707488E-015,40.));
#541=CARTESIAN_POINT('Origin',(0.,0.,40.));
#542=CARTESIAN_POINT('',(10.85,1.32874177707488E-015,41.7));
#543=CARTESIAN_POINT('Origin',(0.,0.,41.7));
#544=CARTESIAN_POINT('Origin',(-4.5181082385767E-016,-1.70541171217382E-016,
40.));
#545=CARTESIAN_POINT('',(9.3155,1.14081972574572E-015,40.));
#546=CARTESIAN_POINT('Origin',(0.,0.,40.));
#547=CARTESIAN_POINT('Origin',(0.,0.,9.5));
#548=CARTESIAN_POINT('',(0.,-12.5,19.));
#549=CARTESIAN_POINT('Origin',(0.,0.,19.));
#550=CARTESIAN_POINT('',(0.,-12.5,0.));
#551=CARTESIAN_POINT('Origin',(0.,0.,0.));
#552=CARTESIAN_POINT('Origin',(0.,-14.75,19.));
#553=CARTESIAN_POINT('',(0.,-17.,19.));
#554=CARTESIAN_POINT('Origin',(0.,0.,19.));
#555=CARTESIAN_POINT('Origin',(0.,0.,19.5029285668945));
#556=CARTESIAN_POINT('',(0.,-17.,20.005857133789));
#557=CARTESIAN_POINT('Origin',(0.,0.,20.005857133789));
#558=CARTESIAN_POINT('Origin',(0.,0.,20.5029285668945));
#559=CARTESIAN_POINT('Origin',(0.,0.,31.35));
#560=CARTESIAN_POINT('',(0.,-14.4155,41.7));
#561=CARTESIAN_POINT('Origin',(0.,0.,41.7));
#562=CARTESIAN_POINT('Origin',(0.,-11.8655,41.7));
#563=CARTESIAN_POINT('Origin',(0.,0.,33.2));
#564=CARTESIAN_POINT('Origin',(0.,0.,20.45));
#565=CARTESIAN_POINT('',(0.,-9.,16.2));
#566=CARTESIAN_POINT('Origin',(0.,0.,16.2));
#567=CARTESIAN_POINT('Origin',(0.,-9.5,16.2));
#568=CARTESIAN_POINT('',(0.,-10.,16.2));
#569=CARTESIAN_POINT('Origin',(0.,0.,16.2));
#570=CARTESIAN_POINT('Origin',(0.,0.,8.1));
#571=CARTESIAN_POINT('',(0.,-10.,0.));
#572=CARTESIAN_POINT('Origin',(0.,0.,0.));
#573=CARTESIAN_POINT('Origin',(0.,-11.25,0.));
#574=UNCERTAINTY_MEASURE_WITH_UNIT(LENGTH_MEASURE(0.01),#576,
'DISTANCE_ACCURACY_VALUE',
'Maximum model space distance between geometric entities at asserted c
onnectivities');
#575=(
GEOMETRIC_REPRESENTATION_CONTEXT(3)
GLOBAL_UNCERTAINTY_ASSIGNED_CONTEXT((#574))
GLOBAL_UNIT_ASSIGNED_CONTEXT((#576,#579,#577))
REPRESENTATION_CONTEXT('','3D')
);
#576=(
LENGTH_UNIT()
NAMED_UNIT(*)
SI_UNIT(.MILLI.,.METRE.)
);
#577=(
NAMED_UNIT(*)
SI_UNIT($,.STERADIAN.)
SOLID_ANGLE_UNIT()
);
#578=DIMENSIONAL_EXPONENTS(0.,0.,0.,0.,0.,0.,0.);
#579=(
CONVERSION_BASED_UNIT('degree',#581)
NAMED_UNIT(#578)
PLANE_ANGLE_UNIT()
);
#580=(
NAMED_UNIT(*)
PLANE_ANGLE_UNIT()
SI_UNIT($,.RADIAN.)
);
#581=PLANE_ANGLE_MEASURE_WITH_UNIT(PLANE_ANGLE_MEASURE(0.01745329252),#580);
#582=SHAPE_DEFINITION_REPRESENTATION(#583,#584);
#583=PRODUCT_DEFINITION_SHAPE('',$,#586);
#584=SHAPE_REPRESENTATION('',(#336),#575);
#585=PRODUCT_DEFINITION_CONTEXT('3D Mechanical Parts',#589,'design');
#586=PRODUCT_DEFINITION('DIFV025020012','DIFV025020012',#587,#585);
#587=PRODUCT_DEFINITION_FORMATION('',$,#591);
#588=APPLICATION_PROTOCOL_DEFINITION('international standard',
'automotive_design',2009,#589);
#589=APPLICATION_CONTEXT(
'Core Data for Automotive Mechanical Design Process');
#590=PRODUCT_CONTEXT('3D Mechanical Parts',#589,'mechanical');
#591=PRODUCT('DIFV025020012','DIFV025020012',$,(#590));
#592=PRESENTATION_STYLE_ASSIGNMENT((#594));
#593=PRESENTATION_STYLE_ASSIGNMENT((#595));
#594=SURFACE_STYLE_USAGE(.BOTH.,#596);
#595=SURFACE_STYLE_USAGE(.BOTH.,#597);
#596=SURFACE_SIDE_STYLE($,(#598));
#597=SURFACE_SIDE_STYLE($,(#599));
#598=SURFACE_STYLE_FILL_AREA(#600);
#599=SURFACE_STYLE_FILL_AREA(#601);
#600=FILL_AREA_STYLE($,(#602));
#601=FILL_AREA_STYLE($,(#603));
#602=FILL_AREA_STYLE_COLOUR($,#604);
#603=FILL_AREA_STYLE_COLOUR($,#605);
#604=COLOUR_RGB('',0.509803921568627,0.509803921568627,0.588235294117647);
#605=COLOUR_RGB('',1.,0.,0.);
ENDSEC;
END-ISO-10303-21;
