ISO-10303-21;
HEADER;
/* Generated by software containing ST-Developer
 * from STEP Tools, Inc. (www.steptools.com) 
 */

FILE_DESCRIPTION(
/* description */ (''),
/* implementation_level */ '2;1');

FILE_NAME(
/* name */ 'C:\\Users\\mdebiase\\Desktop\\baricentro\\MIFV016038.ipt.s
tp',
/* time_stamp */ '2014-06-06T15:26:52+02:00',
/* author */ ('bfaro'),
/* organization */ (''),
/* preprocessor_version */ 'ST-DEVELOPER v15.6',
/* originating_system */ 'Autodesk Inventor 2015',
/* authorisation */ '');

FILE_SCHEMA (('AUTOMOTIVE_DESIGN { 1 0 10303 214 3 1 1 }'));
ENDSEC;

DATA;
#10=MECHANICAL_DESIGN_GEOMETRIC_PRESENTATION_REPRESENTATION('',(#78,#77),
#598);
#11=SHAPE_REPRESENTATION_RELATIONSHIP('SRR','None',#607,#12);
#12=ADVANCED_BREP_SHAPE_REPRESENTATION($,(#13),#597);
#13=MANIFOLD_SOLID_BREP('494',#355);
#14=LINE('',#543,#38);
#15=LINE('',#545,#39);
#16=LINE('',#547,#40);
#17=LINE('',#549,#41);
#18=LINE('',#551,#42);
#19=LINE('',#553,#43);
#20=LINE('',#555,#44);
#21=LINE('',#556,#45);
#22=LINE('',#560,#46);
#23=LINE('',#562,#47);
#24=LINE('',#564,#48);
#25=LINE('',#566,#49);
#26=LINE('',#568,#50);
#27=LINE('',#570,#51);
#28=LINE('',#572,#52);
#29=LINE('',#573,#53);
#30=LINE('',#575,#54);
#31=LINE('',#576,#55);
#32=LINE('',#578,#56);
#33=LINE('',#580,#57);
#34=LINE('',#582,#58);
#35=LINE('',#584,#59);
#36=LINE('',#586,#60);
#37=LINE('',#588,#61);
#38=VECTOR('',#448,9.94112549695428);
#39=VECTOR('',#449,9.94112549695435);
#40=VECTOR('',#450,9.94112549695402);
#41=VECTOR('',#451,9.94112549695435);
#42=VECTOR('',#452,9.94112549695428);
#43=VECTOR('',#453,9.94112549695434);
#44=VECTOR('',#454,9.94112549695402);
#45=VECTOR('',#455,9.94112549695435);
#46=VECTOR('',#458,9.94112549695434);
#47=VECTOR('',#459,9.94112549695428);
#48=VECTOR('',#460,9.94112549695434);
#49=VECTOR('',#461,9.94112549695402);
#50=VECTOR('',#462,9.94112549695434);
#51=VECTOR('',#463,9.94112549695428);
#52=VECTOR('',#464,9.94112549695435);
#53=VECTOR('',#465,9.94112549695402);
#54=VECTOR('',#468,11.685706161939);
#55=VECTOR('',#469,11.685706161939);
#56=VECTOR('',#472,11.685706161939);
#57=VECTOR('',#475,11.685706161939);
#58=VECTOR('',#478,11.685706161939);
#59=VECTOR('',#481,11.685706161939);
#60=VECTOR('',#484,11.685706161939);
#61=VECTOR('',#487,11.685706161939);
#62=PLANE('',#381);
#63=PLANE('',#382);
#64=PLANE('',#383);
#65=PLANE('',#384);
#66=PLANE('',#385);
#67=PLANE('',#386);
#68=PLANE('',#387);
#69=PLANE('',#388);
#70=PLANE('',#389);
#71=PLANE('',#390);
#72=PLANE('',#391);
#73=PLANE('',#392);
#74=PLANE('',#393);
#75=PLANE('',#394);
#76=PLANE('',#395);
#77=STYLED_ITEM('',(#617),#336);
#78=STYLED_ITEM('',(#616),#13);
#79=TOROIDAL_SURFACE('',#360,11.25,0.5);
#80=TOROIDAL_SURFACE('',#362,26.,18.);
#81=TOROIDAL_SURFACE('',#376,11.25,0.5);
#82=FACE_BOUND('',#123,.T.);
#83=FACE_BOUND('',#125,.T.);
#84=FACE_BOUND('',#127,.T.);
#85=FACE_BOUND('',#129,.T.);
#86=FACE_BOUND('',#131,.T.);
#87=FACE_BOUND('',#133,.T.);
#88=FACE_BOUND('',#135,.T.);
#89=FACE_BOUND('',#137,.T.);
#90=FACE_BOUND('',#139,.T.);
#91=FACE_BOUND('',#141,.T.);
#92=FACE_BOUND('',#143,.T.);
#93=FACE_BOUND('',#153,.T.);
#94=FACE_BOUND('',#155,.T.);
#95=FACE_BOUND('',#157,.T.);
#96=FACE_BOUND('',#159,.T.);
#97=FACE_BOUND('',#161,.T.);
#98=FACE_OUTER_BOUND('',#122,.T.);
#99=FACE_OUTER_BOUND('',#124,.T.);
#100=FACE_OUTER_BOUND('',#126,.T.);
#101=FACE_OUTER_BOUND('',#128,.T.);
#102=FACE_OUTER_BOUND('',#130,.T.);
#103=FACE_OUTER_BOUND('',#132,.T.);
#104=FACE_OUTER_BOUND('',#134,.T.);
#105=FACE_OUTER_BOUND('',#136,.T.);
#106=FACE_OUTER_BOUND('',#138,.T.);
#107=FACE_OUTER_BOUND('',#140,.T.);
#108=FACE_OUTER_BOUND('',#142,.T.);
#109=FACE_OUTER_BOUND('',#144,.T.);
#110=FACE_OUTER_BOUND('',#145,.T.);
#111=FACE_OUTER_BOUND('',#146,.T.);
#112=FACE_OUTER_BOUND('',#147,.T.);
#113=FACE_OUTER_BOUND('',#148,.T.);
#114=FACE_OUTER_BOUND('',#149,.T.);
#115=FACE_OUTER_BOUND('',#150,.T.);
#116=FACE_OUTER_BOUND('',#151,.T.);
#117=FACE_OUTER_BOUND('',#152,.T.);
#118=FACE_OUTER_BOUND('',#154,.T.);
#119=FACE_OUTER_BOUND('',#156,.T.);
#120=FACE_OUTER_BOUND('',#158,.T.);
#121=FACE_OUTER_BOUND('',#160,.T.);
#122=EDGE_LOOP('',(#247));
#123=EDGE_LOOP('',(#248));
#124=EDGE_LOOP('',(#249));
#125=EDGE_LOOP('',(#250));
#126=EDGE_LOOP('',(#251));
#127=EDGE_LOOP('',(#252));
#128=EDGE_LOOP('',(#253));
#129=EDGE_LOOP('',(#254));
#130=EDGE_LOOP('',(#255));
#131=EDGE_LOOP('',(#256));
#132=EDGE_LOOP('',(#257));
#133=EDGE_LOOP('',(#258));
#134=EDGE_LOOP('',(#259));
#135=EDGE_LOOP('',(#260));
#136=EDGE_LOOP('',(#261));
#137=EDGE_LOOP('',(#262));
#138=EDGE_LOOP('',(#263));
#139=EDGE_LOOP('',(#264));
#140=EDGE_LOOP('',(#265,#266,#267,#268,#269,#270,#271,#272));
#141=EDGE_LOOP('',(#273));
#142=EDGE_LOOP('',(#274,#275,#276,#277,#278,#279,#280,#281));
#143=EDGE_LOOP('',(#282));
#144=EDGE_LOOP('',(#283,#284,#285,#286));
#145=EDGE_LOOP('',(#287,#288,#289,#290));
#146=EDGE_LOOP('',(#291,#292,#293,#294));
#147=EDGE_LOOP('',(#295,#296,#297,#298));
#148=EDGE_LOOP('',(#299,#300,#301,#302));
#149=EDGE_LOOP('',(#303,#304,#305,#306));
#150=EDGE_LOOP('',(#307,#308,#309,#310));
#151=EDGE_LOOP('',(#311,#312,#313,#314));
#152=EDGE_LOOP('',(#315));
#153=EDGE_LOOP('',(#316));
#154=EDGE_LOOP('',(#317));
#155=EDGE_LOOP('',(#318));
#156=EDGE_LOOP('',(#319));
#157=EDGE_LOOP('',(#320));
#158=EDGE_LOOP('',(#321));
#159=EDGE_LOOP('',(#322));
#160=EDGE_LOOP('',(#323));
#161=EDGE_LOOP('',(#324));
#162=CIRCLE('',#358,11.75);
#163=CIRCLE('',#359,11.75);
#164=CIRCLE('',#361,11.25);
#165=CIRCLE('',#363,8.);
#166=CIRCLE('',#364,8.34355641699017);
#167=CIRCLE('',#366,8.);
#168=CIRCLE('',#368,7.5);
#169=CIRCLE('',#369,7.5);
#170=CIRCLE('',#371,8.29999999999995);
#171=CIRCLE('',#372,8.29999999999995);
#172=CIRCLE('',#374,8.65000000000009);
#173=CIRCLE('',#375,8.65000000000032);
#174=CIRCLE('',#377,11.75);
#175=CIRCLE('',#378,11.25);
#176=CIRCLE('',#380,11.75);
#177=VERTEX_POINT('',#502);
#178=VERTEX_POINT('',#504);
#179=VERTEX_POINT('',#507);
#180=VERTEX_POINT('',#510);
#181=VERTEX_POINT('',#512);
#182=VERTEX_POINT('',#515);
#183=VERTEX_POINT('',#518);
#184=VERTEX_POINT('',#520);
#185=VERTEX_POINT('',#523);
#186=VERTEX_POINT('',#525);
#187=VERTEX_POINT('',#528);
#188=VERTEX_POINT('',#530);
#189=VERTEX_POINT('',#533);
#190=VERTEX_POINT('',#535);
#191=VERTEX_POINT('',#538);
#192=VERTEX_POINT('',#541);
#193=VERTEX_POINT('',#542);
#194=VERTEX_POINT('',#544);
#195=VERTEX_POINT('',#546);
#196=VERTEX_POINT('',#548);
#197=VERTEX_POINT('',#550);
#198=VERTEX_POINT('',#552);
#199=VERTEX_POINT('',#554);
#200=VERTEX_POINT('',#558);
#201=VERTEX_POINT('',#559);
#202=VERTEX_POINT('',#561);
#203=VERTEX_POINT('',#563);
#204=VERTEX_POINT('',#565);
#205=VERTEX_POINT('',#567);
#206=VERTEX_POINT('',#569);
#207=VERTEX_POINT('',#571);
#208=EDGE_CURVE('',#177,#177,#162,.T.);
#209=EDGE_CURVE('',#178,#178,#163,.T.);
#210=EDGE_CURVE('',#179,#179,#164,.T.);
#211=EDGE_CURVE('',#180,#180,#165,.T.);
#212=EDGE_CURVE('',#181,#181,#166,.T.);
#213=EDGE_CURVE('',#182,#182,#167,.T.);
#214=EDGE_CURVE('',#183,#183,#168,.T.);
#215=EDGE_CURVE('',#184,#184,#169,.T.);
#216=EDGE_CURVE('',#185,#185,#170,.T.);
#217=EDGE_CURVE('',#186,#186,#171,.T.);
#218=EDGE_CURVE('',#187,#187,#172,.T.);
#219=EDGE_CURVE('',#188,#188,#173,.T.);
#220=EDGE_CURVE('',#189,#189,#174,.T.);
#221=EDGE_CURVE('',#190,#190,#175,.T.);
#222=EDGE_CURVE('',#191,#191,#176,.T.);
#223=EDGE_CURVE('',#192,#193,#14,.T.);
#224=EDGE_CURVE('',#194,#192,#15,.T.);
#225=EDGE_CURVE('',#195,#194,#16,.T.);
#226=EDGE_CURVE('',#196,#195,#17,.T.);
#227=EDGE_CURVE('',#197,#196,#18,.T.);
#228=EDGE_CURVE('',#198,#197,#19,.T.);
#229=EDGE_CURVE('',#199,#198,#20,.T.);
#230=EDGE_CURVE('',#193,#199,#21,.T.);
#231=EDGE_CURVE('',#200,#201,#22,.T.);
#232=EDGE_CURVE('',#201,#202,#23,.T.);
#233=EDGE_CURVE('',#202,#203,#24,.T.);
#234=EDGE_CURVE('',#203,#204,#25,.T.);
#235=EDGE_CURVE('',#204,#205,#26,.T.);
#236=EDGE_CURVE('',#205,#206,#27,.T.);
#237=EDGE_CURVE('',#206,#207,#28,.T.);
#238=EDGE_CURVE('',#207,#200,#29,.T.);
#239=EDGE_CURVE('',#202,#193,#30,.T.);
#240=EDGE_CURVE('',#201,#192,#31,.T.);
#241=EDGE_CURVE('',#203,#199,#32,.T.);
#242=EDGE_CURVE('',#204,#198,#33,.T.);
#243=EDGE_CURVE('',#205,#197,#34,.T.);
#244=EDGE_CURVE('',#206,#196,#35,.T.);
#245=EDGE_CURVE('',#207,#195,#36,.T.);
#246=EDGE_CURVE('',#200,#194,#37,.T.);
#247=ORIENTED_EDGE('',*,*,#208,.T.);
#248=ORIENTED_EDGE('',*,*,#209,.F.);
#249=ORIENTED_EDGE('',*,*,#210,.T.);
#250=ORIENTED_EDGE('',*,*,#208,.F.);
#251=ORIENTED_EDGE('',*,*,#211,.T.);
#252=ORIENTED_EDGE('',*,*,#212,.F.);
#253=ORIENTED_EDGE('',*,*,#211,.F.);
#254=ORIENTED_EDGE('',*,*,#213,.T.);
#255=ORIENTED_EDGE('',*,*,#214,.F.);
#256=ORIENTED_EDGE('',*,*,#215,.T.);
#257=ORIENTED_EDGE('',*,*,#216,.F.);
#258=ORIENTED_EDGE('',*,*,#217,.T.);
#259=ORIENTED_EDGE('',*,*,#218,.F.);
#260=ORIENTED_EDGE('',*,*,#219,.T.);
#261=ORIENTED_EDGE('',*,*,#220,.T.);
#262=ORIENTED_EDGE('',*,*,#221,.F.);
#263=ORIENTED_EDGE('',*,*,#222,.T.);
#264=ORIENTED_EDGE('',*,*,#220,.F.);
#265=ORIENTED_EDGE('',*,*,#223,.F.);
#266=ORIENTED_EDGE('',*,*,#224,.F.);
#267=ORIENTED_EDGE('',*,*,#225,.F.);
#268=ORIENTED_EDGE('',*,*,#226,.F.);
#269=ORIENTED_EDGE('',*,*,#227,.F.);
#270=ORIENTED_EDGE('',*,*,#228,.F.);
#271=ORIENTED_EDGE('',*,*,#229,.F.);
#272=ORIENTED_EDGE('',*,*,#230,.F.);
#273=ORIENTED_EDGE('',*,*,#209,.T.);
#274=ORIENTED_EDGE('',*,*,#231,.T.);
#275=ORIENTED_EDGE('',*,*,#232,.T.);
#276=ORIENTED_EDGE('',*,*,#233,.T.);
#277=ORIENTED_EDGE('',*,*,#234,.T.);
#278=ORIENTED_EDGE('',*,*,#235,.T.);
#279=ORIENTED_EDGE('',*,*,#236,.T.);
#280=ORIENTED_EDGE('',*,*,#237,.T.);
#281=ORIENTED_EDGE('',*,*,#238,.T.);
#282=ORIENTED_EDGE('',*,*,#222,.F.);
#283=ORIENTED_EDGE('',*,*,#223,.T.);
#284=ORIENTED_EDGE('',*,*,#239,.F.);
#285=ORIENTED_EDGE('',*,*,#232,.F.);
#286=ORIENTED_EDGE('',*,*,#240,.T.);
#287=ORIENTED_EDGE('',*,*,#230,.T.);
#288=ORIENTED_EDGE('',*,*,#241,.F.);
#289=ORIENTED_EDGE('',*,*,#233,.F.);
#290=ORIENTED_EDGE('',*,*,#239,.T.);
#291=ORIENTED_EDGE('',*,*,#229,.T.);
#292=ORIENTED_EDGE('',*,*,#242,.F.);
#293=ORIENTED_EDGE('',*,*,#234,.F.);
#294=ORIENTED_EDGE('',*,*,#241,.T.);
#295=ORIENTED_EDGE('',*,*,#228,.T.);
#296=ORIENTED_EDGE('',*,*,#243,.F.);
#297=ORIENTED_EDGE('',*,*,#235,.F.);
#298=ORIENTED_EDGE('',*,*,#242,.T.);
#299=ORIENTED_EDGE('',*,*,#227,.T.);
#300=ORIENTED_EDGE('',*,*,#244,.F.);
#301=ORIENTED_EDGE('',*,*,#236,.F.);
#302=ORIENTED_EDGE('',*,*,#243,.T.);
#303=ORIENTED_EDGE('',*,*,#226,.T.);
#304=ORIENTED_EDGE('',*,*,#245,.F.);
#305=ORIENTED_EDGE('',*,*,#237,.F.);
#306=ORIENTED_EDGE('',*,*,#244,.T.);
#307=ORIENTED_EDGE('',*,*,#225,.T.);
#308=ORIENTED_EDGE('',*,*,#246,.F.);
#309=ORIENTED_EDGE('',*,*,#238,.F.);
#310=ORIENTED_EDGE('',*,*,#245,.T.);
#311=ORIENTED_EDGE('',*,*,#224,.T.);
#312=ORIENTED_EDGE('',*,*,#240,.F.);
#313=ORIENTED_EDGE('',*,*,#231,.F.);
#314=ORIENTED_EDGE('',*,*,#246,.T.);
#315=ORIENTED_EDGE('',*,*,#221,.T.);
#316=ORIENTED_EDGE('',*,*,#219,.F.);
#317=ORIENTED_EDGE('',*,*,#218,.T.);
#318=ORIENTED_EDGE('',*,*,#217,.F.);
#319=ORIENTED_EDGE('',*,*,#216,.T.);
#320=ORIENTED_EDGE('',*,*,#215,.F.);
#321=ORIENTED_EDGE('',*,*,#213,.F.);
#322=ORIENTED_EDGE('',*,*,#214,.T.);
#323=ORIENTED_EDGE('',*,*,#210,.F.);
#324=ORIENTED_EDGE('',*,*,#212,.T.);
#325=CYLINDRICAL_SURFACE('',#357,11.75);
#326=CYLINDRICAL_SURFACE('',#365,8.);
#327=CYLINDRICAL_SURFACE('',#367,7.5);
#328=CYLINDRICAL_SURFACE('',#370,8.29999999999995);
#329=CYLINDRICAL_SURFACE('',#373,8.65000000000032);
#330=CYLINDRICAL_SURFACE('',#379,11.75);
#331=ADVANCED_FACE('',(#98,#82),#325,.T.);
#332=ADVANCED_FACE('',(#99,#83),#79,.T.);
#333=ADVANCED_FACE('',(#100,#84),#80,.T.);
#334=ADVANCED_FACE('',(#101,#85),#326,.F.);
#335=ADVANCED_FACE('',(#102,#86),#327,.F.);
#336=ADVANCED_FACE('',(#103,#87),#328,.F.);
#337=ADVANCED_FACE('',(#104,#88),#329,.F.);
#338=ADVANCED_FACE('',(#105,#89),#81,.T.);
#339=ADVANCED_FACE('',(#106,#90),#330,.T.);
#340=ADVANCED_FACE('',(#107,#91),#62,.T.);
#341=ADVANCED_FACE('',(#108,#92),#63,.F.);
#342=ADVANCED_FACE('',(#109),#64,.T.);
#343=ADVANCED_FACE('',(#110),#65,.T.);
#344=ADVANCED_FACE('',(#111),#66,.T.);
#345=ADVANCED_FACE('',(#112),#67,.T.);
#346=ADVANCED_FACE('',(#113),#68,.T.);
#347=ADVANCED_FACE('',(#114),#69,.T.);
#348=ADVANCED_FACE('',(#115),#70,.T.);
#349=ADVANCED_FACE('',(#116),#71,.T.);
#350=ADVANCED_FACE('',(#117,#93),#72,.T.);
#351=ADVANCED_FACE('',(#118,#94),#73,.T.);
#352=ADVANCED_FACE('',(#119,#95),#74,.T.);
#353=ADVANCED_FACE('',(#120,#96),#75,.T.);
#354=ADVANCED_FACE('',(#121,#97),#76,.T.);
#355=CLOSED_SHELL('',(#331,#332,#333,#334,#335,#336,#337,#338,#339,#340,
#341,#342,#343,#344,#345,#346,#347,#348,#349,#350,#351,#352,#353,#354));
#356=AXIS2_PLACEMENT_3D('placement',#500,#396,#397);
#357=AXIS2_PLACEMENT_3D('',#501,#398,#399);
#358=AXIS2_PLACEMENT_3D('',#503,#400,#401);
#359=AXIS2_PLACEMENT_3D('',#505,#402,#403);
#360=AXIS2_PLACEMENT_3D('',#506,#404,#405);
#361=AXIS2_PLACEMENT_3D('',#508,#406,#407);
#362=AXIS2_PLACEMENT_3D('',#509,#408,#409);
#363=AXIS2_PLACEMENT_3D('',#511,#410,#411);
#364=AXIS2_PLACEMENT_3D('',#513,#412,#413);
#365=AXIS2_PLACEMENT_3D('',#514,#414,#415);
#366=AXIS2_PLACEMENT_3D('',#516,#416,#417);
#367=AXIS2_PLACEMENT_3D('',#517,#418,#419);
#368=AXIS2_PLACEMENT_3D('',#519,#420,#421);
#369=AXIS2_PLACEMENT_3D('',#521,#422,#423);
#370=AXIS2_PLACEMENT_3D('',#522,#424,#425);
#371=AXIS2_PLACEMENT_3D('',#524,#426,#427);
#372=AXIS2_PLACEMENT_3D('',#526,#428,#429);
#373=AXIS2_PLACEMENT_3D('',#527,#430,#431);
#374=AXIS2_PLACEMENT_3D('',#529,#432,#433);
#375=AXIS2_PLACEMENT_3D('',#531,#434,#435);
#376=AXIS2_PLACEMENT_3D('',#532,#436,#437);
#377=AXIS2_PLACEMENT_3D('',#534,#438,#439);
#378=AXIS2_PLACEMENT_3D('',#536,#440,#441);
#379=AXIS2_PLACEMENT_3D('',#537,#442,#443);
#380=AXIS2_PLACEMENT_3D('',#539,#444,#445);
#381=AXIS2_PLACEMENT_3D('',#540,#446,#447);
#382=AXIS2_PLACEMENT_3D('',#557,#456,#457);
#383=AXIS2_PLACEMENT_3D('',#574,#466,#467);
#384=AXIS2_PLACEMENT_3D('',#577,#470,#471);
#385=AXIS2_PLACEMENT_3D('',#579,#473,#474);
#386=AXIS2_PLACEMENT_3D('',#581,#476,#477);
#387=AXIS2_PLACEMENT_3D('',#583,#479,#480);
#388=AXIS2_PLACEMENT_3D('',#585,#482,#483);
#389=AXIS2_PLACEMENT_3D('',#587,#485,#486);
#390=AXIS2_PLACEMENT_3D('',#589,#488,#489);
#391=AXIS2_PLACEMENT_3D('',#590,#490,#491);
#392=AXIS2_PLACEMENT_3D('',#591,#492,#493);
#393=AXIS2_PLACEMENT_3D('',#592,#494,#495);
#394=AXIS2_PLACEMENT_3D('',#593,#496,#497);
#395=AXIS2_PLACEMENT_3D('',#594,#498,#499);
#396=DIRECTION('axis',(0.,0.,1.));
#397=DIRECTION('refdir',(1.,0.,0.));
#398=DIRECTION('center_axis',(0.,-1.,0.));
#399=DIRECTION('ref_axis',(1.,0.,0.));
#400=DIRECTION('center_axis',(0.,-1.,0.));
#401=DIRECTION('ref_axis',(1.,0.,0.));
#402=DIRECTION('center_axis',(0.,-1.,0.));
#403=DIRECTION('ref_axis',(1.,0.,0.));
#404=DIRECTION('center_axis',(0.,-1.,0.));
#405=DIRECTION('ref_axis',(0.,0.,-1.));
#406=DIRECTION('center_axis',(0.,-1.,0.));
#407=DIRECTION('ref_axis',(1.,0.,0.));
#408=DIRECTION('center_axis',(0.,-1.,0.));
#409=DIRECTION('ref_axis',(0.,0.,-1.));
#410=DIRECTION('center_axis',(0.,-1.,0.));
#411=DIRECTION('ref_axis',(1.,0.,0.));
#412=DIRECTION('center_axis',(0.,-1.,0.));
#413=DIRECTION('ref_axis',(1.,0.,0.));
#414=DIRECTION('center_axis',(0.,-1.,0.));
#415=DIRECTION('ref_axis',(1.,0.,0.));
#416=DIRECTION('center_axis',(0.,-1.,0.));
#417=DIRECTION('ref_axis',(1.,0.,0.));
#418=DIRECTION('center_axis',(0.,-1.,0.));
#419=DIRECTION('ref_axis',(1.,0.,0.));
#420=DIRECTION('center_axis',(0.,-1.,0.));
#421=DIRECTION('ref_axis',(1.,0.,0.));
#422=DIRECTION('center_axis',(0.,-1.,0.));
#423=DIRECTION('ref_axis',(1.,0.,0.));
#424=DIRECTION('center_axis',(0.,-1.,0.));
#425=DIRECTION('ref_axis',(1.,0.,0.));
#426=DIRECTION('center_axis',(0.,-1.,0.));
#427=DIRECTION('ref_axis',(1.,0.,0.));
#428=DIRECTION('center_axis',(0.,-1.,0.));
#429=DIRECTION('ref_axis',(1.,0.,0.));
#430=DIRECTION('center_axis',(0.,-1.,0.));
#431=DIRECTION('ref_axis',(1.,0.,0.));
#432=DIRECTION('center_axis',(0.,-1.,0.));
#433=DIRECTION('ref_axis',(1.,0.,0.));
#434=DIRECTION('center_axis',(0.,-1.,0.));
#435=DIRECTION('ref_axis',(1.,0.,0.));
#436=DIRECTION('center_axis',(0.,-1.,0.));
#437=DIRECTION('ref_axis',(0.,0.,-1.));
#438=DIRECTION('center_axis',(0.,-1.,0.));
#439=DIRECTION('ref_axis',(1.,0.,0.));
#440=DIRECTION('center_axis',(0.,-1.,0.));
#441=DIRECTION('ref_axis',(1.,0.,0.));
#442=DIRECTION('center_axis',(0.,-1.,0.));
#443=DIRECTION('ref_axis',(1.,0.,0.));
#444=DIRECTION('center_axis',(0.,-1.,0.));
#445=DIRECTION('ref_axis',(1.,0.,0.));
#446=DIRECTION('center_axis',(0.,1.,0.));
#447=DIRECTION('ref_axis',(0.,0.,1.));
#448=DIRECTION('',(0.,0.,-1.));
#449=DIRECTION('',(-0.707106781186552,0.,-0.707106781186543));
#450=DIRECTION('',(-1.,0.,0.));
#451=DIRECTION('',(-0.707106781186552,0.,0.707106781186543));
#452=DIRECTION('',(0.,0.,1.));
#453=DIRECTION('',(0.707106781186552,0.,0.707106781186543));
#454=DIRECTION('',(1.,0.,0.));
#455=DIRECTION('',(0.707106781186552,0.,-0.707106781186543));
#456=DIRECTION('center_axis',(0.,1.,0.));
#457=DIRECTION('ref_axis',(0.,0.,1.));
#458=DIRECTION('',(-0.707106781186552,0.,-0.707106781186543));
#459=DIRECTION('',(0.,0.,-1.));
#460=DIRECTION('',(0.707106781186552,0.,-0.707106781186543));
#461=DIRECTION('',(1.,0.,0.));
#462=DIRECTION('',(0.707106781186552,0.,0.707106781186543));
#463=DIRECTION('',(0.,0.,1.));
#464=DIRECTION('',(-0.707106781186552,0.,0.707106781186543));
#465=DIRECTION('',(-1.,0.,0.));
#466=DIRECTION('center_axis',(-1.,0.,0.));
#467=DIRECTION('ref_axis',(0.,0.,1.));
#468=DIRECTION('',(0.,1.,0.));
#469=DIRECTION('',(0.,1.,0.));
#470=DIRECTION('center_axis',(-0.707106781186543,-1.074881E-16,-0.707106781186552));
#471=DIRECTION('ref_axis',(-0.707106781186552,0.,0.707106781186544));
#472=DIRECTION('',(0.,1.,0.));
#473=DIRECTION('center_axis',(0.,0.,-1.));
#474=DIRECTION('ref_axis',(-1.,0.,0.));
#475=DIRECTION('',(0.,1.,0.));
#476=DIRECTION('center_axis',(0.707106781186543,-1.074881E-16,-0.707106781186552));
#477=DIRECTION('ref_axis',(-0.707106781186552,0.,-0.707106781186543));
#478=DIRECTION('',(0.,1.,0.));
#479=DIRECTION('center_axis',(1.,0.,0.));
#480=DIRECTION('ref_axis',(0.,0.,-1.));
#481=DIRECTION('',(0.,1.,0.));
#482=DIRECTION('center_axis',(0.707106781186543,1.074881E-16,0.707106781186552));
#483=DIRECTION('ref_axis',(0.707106781186552,0.,-0.707106781186544));
#484=DIRECTION('',(0.,1.,0.));
#485=DIRECTION('center_axis',(0.,0.,1.));
#486=DIRECTION('ref_axis',(1.,0.,0.));
#487=DIRECTION('',(0.,1.,0.));
#488=DIRECTION('center_axis',(-0.707106781186543,1.074881E-16,0.707106781186552));
#489=DIRECTION('ref_axis',(0.707106781186552,0.,0.707106781186543));
#490=DIRECTION('center_axis',(0.,-1.,0.));
#491=DIRECTION('ref_axis',(0.,0.,-1.));
#492=DIRECTION('center_axis',(0.,-1.,0.));
#493=DIRECTION('ref_axis',(0.,0.,-1.));
#494=DIRECTION('center_axis',(0.,-1.,0.));
#495=DIRECTION('ref_axis',(0.,0.,-1.));
#496=DIRECTION('center_axis',(0.,1.,0.));
#497=DIRECTION('ref_axis',(0.,0.,1.));
#498=DIRECTION('center_axis',(0.,1.,0.));
#499=DIRECTION('ref_axis',(0.,0.,1.));
#500=CARTESIAN_POINT('',(0.,0.,0.));
#501=CARTESIAN_POINT('Origin',(-1.18562581974402E-8,10.1706094629395,0.));
#502=CARTESIAN_POINT('',(-1.18562581974402E-8,14.7241829224546,11.75));
#503=CARTESIAN_POINT('Origin',(-1.18562581974402E-8,14.7241829224546,0.));
#504=CARTESIAN_POINT('',(-11.7500000118562,5.6170360034244,-1.438912E-15));
#505=CARTESIAN_POINT('Origin',(-1.18562581974402E-8,5.6170360034244,0.));
#506=CARTESIAN_POINT('Origin',(-1.18562581974402E-8,14.7241829224546,0.));
#507=CARTESIAN_POINT('',(11.2499999881437,15.2241829224545,0.));
#508=CARTESIAN_POINT('Origin',(-1.18562581974402E-8,15.2241829224545,0.));
#509=CARTESIAN_POINT('Origin',(-1.18562581974402E-8,11.7241829224545,0.));
#510=CARTESIAN_POINT('',(-8.00000001185623,11.7241829224545,-9.796851E-16));
#511=CARTESIAN_POINT('Origin',(-1.18562581974402E-8,11.7241829224545,0.));
#512=CARTESIAN_POINT('',(8.34355640513394,15.2241829224528,0.));
#513=CARTESIAN_POINT('Origin',(-1.18562581974402E-8,15.2241829224528,0.));
#514=CARTESIAN_POINT('Origin',(-1.18562581974402E-8,5.87418292245474,0.));
#515=CARTESIAN_POINT('',(-8.00000001185623,0.0241829224546564,-9.796851E-16));
#516=CARTESIAN_POINT('Origin',(-1.18562581974402E-8,0.0241829224546564,
0.));
#517=CARTESIAN_POINT('Origin',(-1.18562581974402E-8,-1.32581707754525,0.));
#518=CARTESIAN_POINT('',(-7.50000001185626,0.0241829224546564,-9.184548E-16));
#519=CARTESIAN_POINT('Origin',(-1.18562581974402E-8,0.0241829224546564,
0.));
#520=CARTESIAN_POINT('',(-7.50000001185626,-2.67581707754545,-9.184548E-16));
#521=CARTESIAN_POINT('Origin',(-1.18562581974402E-8,-2.67581707754545,0.));
#522=CARTESIAN_POINT('Origin',(-1.18562581974402E-8,-8.67581707754539,0.));
#523=CARTESIAN_POINT('',(-8.3000000118561,-2.67581707754516,-1.016423E-15));
#524=CARTESIAN_POINT('Origin',(-1.18562581974402E-8,-2.67581707754516,0.));
#525=CARTESIAN_POINT('',(-8.3000000118561,-14.6758170775456,-1.016423E-15));
#526=CARTESIAN_POINT('Origin',(-1.18562581974402E-8,-14.6758170775456,0.));
#527=CARTESIAN_POINT('Origin',(-1.18562581974402E-8,-15.1758170775454,0.));
#528=CARTESIAN_POINT('',(-8.65000001185649,-14.6758170775456,-1.059284E-15));
#529=CARTESIAN_POINT('Origin',(-1.18562581974402E-8,-14.6758170775456,0.));
#530=CARTESIAN_POINT('',(-8.65000001185649,-15.6758170775453,-1.059284E-15));
#531=CARTESIAN_POINT('Origin',(-1.18562581974402E-8,-15.6758170775453,0.));
#532=CARTESIAN_POINT('Origin',(-1.18562581974402E-8,-15.1758170775452,0.));
#533=CARTESIAN_POINT('',(-11.7500000118562,-15.1758170775452,-1.438912E-15));
#534=CARTESIAN_POINT('Origin',(-1.18562581974402E-8,-15.1758170775452,0.));
#535=CARTESIAN_POINT('',(11.2499999881437,-15.6758170775453,0.));
#536=CARTESIAN_POINT('Origin',(-1.18562581974402E-8,-15.6758170775453,0.));
#537=CARTESIAN_POINT('Origin',(-1.18562581974402E-8,-10.62224361803,0.));
#538=CARTESIAN_POINT('',(-11.7500000118562,-6.06867015851492,-1.438912E-15));
#539=CARTESIAN_POINT('Origin',(-1.18562581974402E-8,-6.06867015851492,0.));
#540=CARTESIAN_POINT('Origin',(-1.18562581974402E-8,5.61703600342412,-2.88658E-15));
#541=CARTESIAN_POINT('',(-12.0000000118561,5.61703600342412,4.97056274847714));
#542=CARTESIAN_POINT('',(-12.0000000118561,5.61703600342412,-4.97056274847714));
#543=CARTESIAN_POINT('',(-12.0000000118561,5.6170360034244,4.97056274847714));
#544=CARTESIAN_POINT('',(-4.97056276033319,5.61703600342412,12.));
#545=CARTESIAN_POINT('',(-4.97056276033319,5.6170360034244,12.));
#546=CARTESIAN_POINT('',(4.97056273662082,5.61703600342412,12.));
#547=CARTESIAN_POINT('',(4.97056273662082,5.6170360034244,12.));
#548=CARTESIAN_POINT('',(11.9999999881438,5.61703600342412,4.97056274847713));
#549=CARTESIAN_POINT('',(11.9999999881438,5.6170360034244,4.97056274847713));
#550=CARTESIAN_POINT('',(11.9999999881438,5.61703600342412,-4.97056274847715));
#551=CARTESIAN_POINT('',(11.9999999881438,5.6170360034244,-4.97056274847715));
#552=CARTESIAN_POINT('',(4.97056273662082,5.61703600342412,-12.));
#553=CARTESIAN_POINT('',(4.97056273662082,5.6170360034244,-12.));
#554=CARTESIAN_POINT('',(-4.97056276033319,5.61703600342412,-12.));
#555=CARTESIAN_POINT('',(-4.97056276033319,5.6170360034244,-12.));
#556=CARTESIAN_POINT('',(-12.0000000118561,5.6170360034244,-4.97056274847714));
#557=CARTESIAN_POINT('Origin',(-1.18559739803459E-8,-6.06867015851464,-1.776357E-15));
#558=CARTESIAN_POINT('',(-4.97056276033319,-6.06867015851492,12.));
#559=CARTESIAN_POINT('',(-12.0000000118561,-6.06867015851492,4.97056274847714));
#560=CARTESIAN_POINT('',(-4.97056276033319,-6.06867015851492,12.));
#561=CARTESIAN_POINT('',(-12.0000000118561,-6.06867015851492,-4.97056274847714));
#562=CARTESIAN_POINT('',(-12.0000000118561,-6.06867015851492,4.97056274847714));
#563=CARTESIAN_POINT('',(-4.97056276033319,-6.06867015851492,-12.));
#564=CARTESIAN_POINT('',(-12.0000000118561,-6.06867015851492,-4.97056274847714));
#565=CARTESIAN_POINT('',(4.97056273662082,-6.06867015851492,-12.));
#566=CARTESIAN_POINT('',(-4.97056276033319,-6.06867015851492,-12.));
#567=CARTESIAN_POINT('',(11.9999999881438,-6.06867015851492,-4.97056274847715));
#568=CARTESIAN_POINT('',(4.97056273662082,-6.06867015851492,-12.));
#569=CARTESIAN_POINT('',(11.9999999881438,-6.06867015851492,4.97056274847713));
#570=CARTESIAN_POINT('',(11.9999999881438,-6.06867015851492,-4.97056274847715));
#571=CARTESIAN_POINT('',(4.97056273662082,-6.06867015851492,12.));
#572=CARTESIAN_POINT('',(11.9999999881438,-6.06867015851492,4.97056274847713));
#573=CARTESIAN_POINT('',(4.97056273662082,-6.06867015851492,12.));
#574=CARTESIAN_POINT('Origin',(-12.0000000118561,-6.06867015851492,4.97056274847714));
#575=CARTESIAN_POINT('',(-12.0000000118561,-6.06867015851492,-4.97056274847714));
#576=CARTESIAN_POINT('',(-12.0000000118561,-6.06867015851492,4.97056274847714));
#577=CARTESIAN_POINT('Origin',(-12.0000000118561,-6.06867015851492,-4.97056274847714));
#578=CARTESIAN_POINT('',(-4.97056276033319,-6.06867015851492,-12.));
#579=CARTESIAN_POINT('Origin',(-4.97056276033319,-6.06867015851492,-12.));
#580=CARTESIAN_POINT('',(4.97056273662082,-6.06867015851492,-12.));
#581=CARTESIAN_POINT('Origin',(4.97056273662082,-6.06867015851492,-12.));
#582=CARTESIAN_POINT('',(11.9999999881438,-6.06867015851492,-4.97056274847715));
#583=CARTESIAN_POINT('Origin',(11.9999999881438,-6.06867015851492,-4.97056274847715));
#584=CARTESIAN_POINT('',(11.9999999881438,-6.06867015851492,4.97056274847713));
#585=CARTESIAN_POINT('Origin',(11.9999999881438,-6.06867015851492,4.97056274847713));
#586=CARTESIAN_POINT('',(4.97056273662082,-6.06867015851492,12.));
#587=CARTESIAN_POINT('Origin',(4.97056273662082,-6.06867015851492,12.));
#588=CARTESIAN_POINT('',(-4.97056276033319,-6.06867015851492,12.));
#589=CARTESIAN_POINT('Origin',(-4.97056276033319,-6.06867015851492,12.));
#590=CARTESIAN_POINT('Origin',(9.94999998814379,-15.6758170775453,0.));
#591=CARTESIAN_POINT('Origin',(8.47499998814399,-14.6758170775456,0.));
#592=CARTESIAN_POINT('Origin',(7.89999998814366,-2.67581707754545,0.));
#593=CARTESIAN_POINT('Origin',(7.7499999881438,0.0241829224546564,0.));
#594=CARTESIAN_POINT('Origin',(9.79677819663877,15.2241829224536,0.));
#595=UNCERTAINTY_MEASURE_WITH_UNIT(LENGTH_MEASURE(0.01),#599,
'DISTANCE_ACCURACY_VALUE',
'Maximum model space distance between geometric entities at asserted c
onnectivities');
#596=UNCERTAINTY_MEASURE_WITH_UNIT(LENGTH_MEASURE(1.E-6),#599,
'DISTANCE_ACCURACY_VALUE',
'Maximum model space distance between geometric entities at asserted c
onnectivities');
#597=(
GEOMETRIC_REPRESENTATION_CONTEXT(3)
GLOBAL_UNCERTAINTY_ASSIGNED_CONTEXT((#595))
GLOBAL_UNIT_ASSIGNED_CONTEXT((#599,#602,#600))
REPRESENTATION_CONTEXT('','3D')
);
#598=(
GEOMETRIC_REPRESENTATION_CONTEXT(3)
GLOBAL_UNCERTAINTY_ASSIGNED_CONTEXT((#596))
GLOBAL_UNIT_ASSIGNED_CONTEXT((#599,#602,#600))
REPRESENTATION_CONTEXT('','3D')
);
#599=(
LENGTH_UNIT()
NAMED_UNIT(*)
SI_UNIT(.MILLI.,.METRE.)
);
#600=(
NAMED_UNIT(*)
SI_UNIT($,.STERADIAN.)
SOLID_ANGLE_UNIT()
);
#601=DIMENSIONAL_EXPONENTS(0.,0.,0.,0.,0.,0.,0.);
#602=(
CONVERSION_BASED_UNIT('degree',#604)
NAMED_UNIT(#601)
PLANE_ANGLE_UNIT()
);
#603=(
NAMED_UNIT(*)
PLANE_ANGLE_UNIT()
SI_UNIT($,.RADIAN.)
);
#604=PLANE_ANGLE_MEASURE_WITH_UNIT(PLANE_ANGLE_MEASURE(0.01745329252),#603);
#605=SHAPE_DEFINITION_REPRESENTATION(#606,#607);
#606=PRODUCT_DEFINITION_SHAPE('',$,#609);
#607=SHAPE_REPRESENTATION('',(#356),#597);
#608=PRODUCT_DEFINITION_CONTEXT('part definition',#613,'design');
#609=PRODUCT_DEFINITION('MIFV016038','MIFV016038',#610,#608);
#610=PRODUCT_DEFINITION_FORMATION('',$,#615);
#611=PRODUCT_RELATED_PRODUCT_CATEGORY('MIFV016038','MIFV016038',(#615));
#612=APPLICATION_PROTOCOL_DEFINITION('international standard',
'automotive_design',2009,#613);
#613=APPLICATION_CONTEXT(
'Core Data for Automotive Mechanical Design Process');
#614=PRODUCT_CONTEXT('part definition',#613,'mechanical');
#615=PRODUCT('MIFV016038','MIFV016038',$,(#614));
#616=PRESENTATION_STYLE_ASSIGNMENT((#618));
#617=PRESENTATION_STYLE_ASSIGNMENT((#619));
#618=SURFACE_STYLE_USAGE(.BOTH.,#620);
#619=SURFACE_STYLE_USAGE(.BOTH.,#621);
#620=SURFACE_SIDE_STYLE($,(#622));
#621=SURFACE_SIDE_STYLE($,(#623));
#622=SURFACE_STYLE_FILL_AREA(#624);
#623=SURFACE_STYLE_FILL_AREA(#625);
#624=FILL_AREA_STYLE($,(#626));
#625=FILL_AREA_STYLE($,(#627));
#626=FILL_AREA_STYLE_COLOUR($,#628);
#627=FILL_AREA_STYLE_COLOUR($,#629);
#628=COLOUR_RGB('',0.509803921568627,0.509803921568627,0.588235294117647);
#629=COLOUR_RGB('',1.,0.,0.);
ENDSEC;
END-ISO-10303-21;
