ISO-10303-21;
HEADER;
FILE_DESCRIPTION( ( 'STEP AP214' ), '1' );
FILE_NAME( 'p:/temp/worker_12/temp/exporttempdir_5588_343_UqVKD/format_0/22053011007(architecture400).stp', '2021-11-17T11:52:18', ( 'License CC BY-ND 4.0' ), ( 'CADENAS' ), ' ', 'PARTsolutions', ' ' );
FILE_SCHEMA( ( 'AUTOMOTIVE_DESIGN { 1 0 10303 214 1 1 1 1 }' ) );
ENDSEC;
DATA;
#1 = MECHANICAL_DESIGN_GEOMETRIC_PRESENTATION_REPRESENTATION( ' ', ( #10, #11, #12, #13, #14, #15, #16, #17, #18 ), #6 );
#2 = PRODUCT_DEFINITION_CONTEXT( '', #19, 'design' );
#3 = APPLICATION_PROTOCOL_DEFINITION( 'international standard', 'automotive_design', 2001, #19 );
#4 = PRODUCT_CATEGORY_RELATIONSHIP( 'NONE', 'NONE', #20, #21 );
#5 = SHAPE_DEFINITION_REPRESENTATION( #22, #23 );
#6 =  ( GEOMETRIC_REPRESENTATION_CONTEXT( 3 )GLOBAL_UNCERTAINTY_ASSIGNED_CONTEXT( ( #26 ) )GLOBAL_UNIT_ASSIGNED_CONTEXT( ( #28, #29, #30 ) )REPRESENTATION_CONTEXT( 'NONE', 'WORKSPACE' ) );
#10 = STYLED_ITEM( '', ( #32 ), #33 );
#11 = STYLED_ITEM( '', ( #34 ), #35 );
#12 = STYLED_ITEM( '', ( #36 ), #37 );
#13 = STYLED_ITEM( '', ( #38 ), #39 );
#14 = STYLED_ITEM( '', ( #40 ), #41 );
#15 = STYLED_ITEM( '', ( #42 ), #43 );
#16 = STYLED_ITEM( '', ( #44 ), #45 );
#17 = STYLED_ITEM( '', ( #46 ), #47 );
#18 = STYLED_ITEM( '', ( #48 ), #49 );
#19 = APPLICATION_CONTEXT( 'core data for automotive mechanical design processes' );
#20 = PRODUCT_CATEGORY( 'part', 'NONE' );
#21 = PRODUCT_RELATED_PRODUCT_CATEGORY( 'detail', ' ', ( #50 ) );
#22 = PRODUCT_DEFINITION_SHAPE( 'NONE', 'NONE', #51 );
#23 = ADVANCED_BREP_SHAPE_REPRESENTATION( '_22053011007(architecture400)', ( #52, #53 ), #6 );
#26 = UNCERTAINTY_MEASURE_WITH_UNIT( LENGTH_MEASURE( 0.00100000000000000 ), #28, '', '' );
#28 =  ( CONVERSION_BASED_UNIT( 'MILLIMETRE', #56 )LENGTH_UNIT(  )NAMED_UNIT( #59 ) );
#29 =  ( NAMED_UNIT( #61 )PLANE_ANGLE_UNIT(  )SI_UNIT( $, .RADIAN. ) );
#30 =  ( NAMED_UNIT( #61 )SI_UNIT( $, .STERADIAN. )SOLID_ANGLE_UNIT(  ) );
#32 = PRESENTATION_STYLE_ASSIGNMENT( ( #67 ) );
#33 = ADVANCED_FACE( '', ( #68, #69 ), #70, .T. );
#34 = PRESENTATION_STYLE_ASSIGNMENT( ( #71 ) );
#35 = ADVANCED_FACE( '', ( #72, #73 ), #74, .T. );
#36 = PRESENTATION_STYLE_ASSIGNMENT( ( #75 ) );
#37 = ADVANCED_FACE( '', ( #76, #77 ), #78, .F. );
#38 = PRESENTATION_STYLE_ASSIGNMENT( ( #79 ) );
#39 = ADVANCED_FACE( '', ( #80, #81 ), #82, .T. );
#40 = PRESENTATION_STYLE_ASSIGNMENT( ( #83 ) );
#41 = ADVANCED_FACE( '', ( #84, #85 ), #86, .T. );
#42 = PRESENTATION_STYLE_ASSIGNMENT( ( #87 ) );
#43 = ADVANCED_FACE( '', ( #88, #89 ), #90, .F. );
#44 = PRESENTATION_STYLE_ASSIGNMENT( ( #91 ) );
#45 = ADVANCED_FACE( '', ( #92, #93 ), #94, .F. );
#46 = PRESENTATION_STYLE_ASSIGNMENT( ( #95 ) );
#47 = ADVANCED_FACE( '', ( #96, #97 ), #98, .T. );
#48 = PRESENTATION_STYLE_ASSIGNMENT( ( #99 ) );
#49 = ADVANCED_FACE( '', ( #100, #101 ), #102, .T. );
#50 = PRODUCT( '_22053011007(architecture400)', '_22053011007(architecture400)', 'PART-_22053011007(architecture400)-DESC', ( #103 ) );
#51 = PRODUCT_DEFINITION( 'NONE', 'NONE', #104, #2 );
#52 = MANIFOLD_SOLID_BREP( '_22053011007(architecture400)', #105 );
#53 = AXIS2_PLACEMENT_3D( '', #106, #107, #108 );
#56 = LENGTH_MEASURE_WITH_UNIT( LENGTH_MEASURE( 1.00000000000000 ), #109 );
#59 = DIMENSIONAL_EXPONENTS( 1.00000000000000, 0.000000000000000, 0.000000000000000, 0.000000000000000, 0.000000000000000, 0.000000000000000, 0.000000000000000 );
#61 = DIMENSIONAL_EXPONENTS( 0.000000000000000, 0.000000000000000, 0.000000000000000, 0.000000000000000, 0.000000000000000, 0.000000000000000, 0.000000000000000 );
#67 = SURFACE_STYLE_USAGE( .BOTH., #110 );
#68 = FACE_OUTER_BOUND( '', #111, .T. );
#69 = FACE_BOUND( '', #112, .T. );
#70 = CONICAL_SURFACE( '', #113, 65.5750000000000, 0.0255379250000000 );
#71 = SURFACE_STYLE_USAGE( .BOTH., #114 );
#72 = FACE_OUTER_BOUND( '', #115, .T. );
#73 = FACE_BOUND( '', #116, .T. );
#74 = PLANE( '', #117 );
#75 = SURFACE_STYLE_USAGE( .BOTH., #118 );
#76 = FACE_OUTER_BOUND( '', #119, .T. );
#77 = FACE_OUTER_BOUND( '', #120, .T. );
#78 = CYLINDRICAL_SURFACE( '', #121, 51.0833333333000 );
#79 = SURFACE_STYLE_USAGE( .BOTH., #122 );
#80 = FACE_BOUND( '', #123, .T. );
#81 = FACE_OUTER_BOUND( '', #124, .T. );
#82 = CONICAL_SURFACE( '', #125, 66.7500000000000, 0.0266982002000000 );
#83 = SURFACE_STYLE_USAGE( .BOTH., #126 );
#84 = FACE_BOUND( '', #127, .T. );
#85 = FACE_OUTER_BOUND( '', #128, .T. );
#86 = PLANE( '', #129 );
#87 = SURFACE_STYLE_USAGE( .BOTH., #130 );
#88 = FACE_OUTER_BOUND( '', #131, .T. );
#89 = FACE_OUTER_BOUND( '', #132, .T. );
#90 = CYLINDRICAL_SURFACE( '', #133, 55.0000000000000 );
#91 = SURFACE_STYLE_USAGE( .BOTH., #134 );
#92 = FACE_OUTER_BOUND( '', #135, .T. );
#93 = FACE_OUTER_BOUND( '', #136, .T. );
#94 = CYLINDRICAL_SURFACE( '', #137, 55.0000000000000 );
#95 = SURFACE_STYLE_USAGE( .BOTH., #138 );
#96 = FACE_OUTER_BOUND( '', #139, .T. );
#97 = FACE_BOUND( '', #140, .T. );
#98 = PLANE( '', #141 );
#99 = SURFACE_STYLE_USAGE( .BOTH., #142 );
#100 = FACE_BOUND( '', #143, .T. );
#101 = FACE_OUTER_BOUND( '', #144, .T. );
#102 = PLANE( '', #145 );
#103 = PRODUCT_CONTEXT( '', #19, 'mechanical' );
#104 = PRODUCT_DEFINITION_FORMATION_WITH_SPECIFIED_SOURCE( ' ', 'NONE', #50, .NOT_KNOWN. );
#105 = CLOSED_SHELL( '', ( #39, #41, #43, #49, #37, #47, #45, #35, #33 ) );
#106 = CARTESIAN_POINT( '', ( 0.000000000000000, 0.000000000000000, 0.000000000000000 ) );
#107 = DIRECTION( '', ( 0.000000000000000, 0.000000000000000, 1.00000000000000 ) );
#108 = DIRECTION( '', ( 1.00000000000000, 0.000000000000000, 0.000000000000000 ) );
#109 =  ( LENGTH_UNIT(  )NAMED_UNIT( #59 )SI_UNIT( .MILLI., .METRE. ) );
#110 = SURFACE_SIDE_STYLE( '', ( #147 ) );
#111 = EDGE_LOOP( '', ( #148 ) );
#112 = EDGE_LOOP( '', ( #149 ) );
#113 = AXIS2_PLACEMENT_3D( '', #150, #151, #152 );
#114 = SURFACE_SIDE_STYLE( '', ( #153 ) );
#115 = EDGE_LOOP( '', ( #154 ) );
#116 = EDGE_LOOP( '', ( #155 ) );
#117 = AXIS2_PLACEMENT_3D( '', #156, #157, #158 );
#118 = SURFACE_SIDE_STYLE( '', ( #159 ) );
#119 = EDGE_LOOP( '', ( #160 ) );
#120 = EDGE_LOOP( '', ( #161 ) );
#121 = AXIS2_PLACEMENT_3D( '', #162, #163, #164 );
#122 = SURFACE_SIDE_STYLE( '', ( #165 ) );
#123 = EDGE_LOOP( '', ( #166 ) );
#124 = EDGE_LOOP( '', ( #167 ) );
#125 = AXIS2_PLACEMENT_3D( '', #168, #169, #170 );
#126 = SURFACE_SIDE_STYLE( '', ( #171 ) );
#127 = EDGE_LOOP( '', ( #172 ) );
#128 = EDGE_LOOP( '', ( #173 ) );
#129 = AXIS2_PLACEMENT_3D( '', #174, #175, #176 );
#130 = SURFACE_SIDE_STYLE( '', ( #177 ) );
#131 = EDGE_LOOP( '', ( #178 ) );
#132 = EDGE_LOOP( '', ( #179 ) );
#133 = AXIS2_PLACEMENT_3D( '', #180, #181, #182 );
#134 = SURFACE_SIDE_STYLE( '', ( #183 ) );
#135 = EDGE_LOOP( '', ( #184 ) );
#136 = EDGE_LOOP( '', ( #185 ) );
#137 = AXIS2_PLACEMENT_3D( '', #186, #187, #188 );
#138 = SURFACE_SIDE_STYLE( '', ( #189 ) );
#139 = EDGE_LOOP( '', ( #190 ) );
#140 = EDGE_LOOP( '', ( #191 ) );
#141 = AXIS2_PLACEMENT_3D( '', #192, #193, #194 );
#142 = SURFACE_SIDE_STYLE( '', ( #195 ) );
#143 = EDGE_LOOP( '', ( #196 ) );
#144 = EDGE_LOOP( '', ( #197 ) );
#145 = AXIS2_PLACEMENT_3D( '', #198, #199, #200 );
#147 = SURFACE_STYLE_FILL_AREA( #201 );
#148 = ORIENTED_EDGE( '', *, *, #202, .T. );
#149 = ORIENTED_EDGE( '', *, *, #203, .F. );
#150 = CARTESIAN_POINT( '', ( 43.0000000000000, 0.000000000000000, 0.000000000000000 ) );
#151 = DIRECTION( '', ( -1.00000000000000, 0.000000000000000, -0.000000000000000 ) );
#152 = DIRECTION( '', ( 0.000000000000000, 0.000000000000000, 1.00000000000000 ) );
#153 = SURFACE_STYLE_FILL_AREA( #204 );
#154 = ORIENTED_EDGE( '', *, *, #203, .T. );
#155 = ORIENTED_EDGE( '', *, *, #205, .F. );
#156 = CARTESIAN_POINT( '', ( 43.0000000000000, 55.0000000000000, 0.000000000000000 ) );
#157 = DIRECTION( '', ( 1.00000000000000, 0.000000000000000, -0.000000000000000 ) );
#158 = DIRECTION( '', ( -0.000000000000000, 0.000000000000000, -1.00000000000000 ) );
#159 = SURFACE_STYLE_FILL_AREA( #206 );
#160 = ORIENTED_EDGE( '', *, *, #207, .T. );
#161 = ORIENTED_EDGE( '', *, *, #208, .F. );
#162 = CARTESIAN_POINT( '', ( 43.0000000000000, 0.000000000000000, 0.000000000000000 ) );
#163 = DIRECTION( '', ( -1.00000000000000, -0.000000000000000, 0.000000000000000 ) );
#164 = DIRECTION( '', ( -0.000000000000000, 0.000000000000000, -1.00000000000000 ) );
#165 = SURFACE_STYLE_FILL_AREA( #209 );
#166 = ORIENTED_EDGE( '', *, *, #210, .T. );
#167 = ORIENTED_EDGE( '', *, *, #202, .F. );
#168 = CARTESIAN_POINT( '', ( -3.00000000000000, 0.000000000000000, 0.000000000000000 ) );
#169 = DIRECTION( '', ( 1.00000000000000, -0.000000000000000, -0.000000000000000 ) );
#170 = DIRECTION( '', ( -0.000000000000000, 0.000000000000000, -1.00000000000000 ) );
#171 = SURFACE_STYLE_FILL_AREA( #211 );
#172 = ORIENTED_EDGE( '', *, *, #212, .T. );
#173 = ORIENTED_EDGE( '', *, *, #210, .F. );
#174 = CARTESIAN_POINT( '', ( -47.0000000000000, 65.5750000000000, 0.000000000000000 ) );
#175 = DIRECTION( '', ( -1.00000000000000, 0.000000000000000, 0.000000000000000 ) );
#176 = DIRECTION( '', ( 0.000000000000000, 0.000000000000000, 1.00000000000000 ) );
#177 = SURFACE_STYLE_FILL_AREA( #213 );
#178 = ORIENTED_EDGE( '', *, *, #214, .T. );
#179 = ORIENTED_EDGE( '', *, *, #212, .F. );
#180 = CARTESIAN_POINT( '', ( 43.0000000000000, 0.000000000000000, 0.000000000000000 ) );
#181 = DIRECTION( '', ( -1.00000000000000, -0.000000000000000, 0.000000000000000 ) );
#182 = DIRECTION( '', ( -0.000000000000000, 0.000000000000000, -1.00000000000000 ) );
#183 = SURFACE_STYLE_FILL_AREA( #215 );
#184 = ORIENTED_EDGE( '', *, *, #205, .T. );
#185 = ORIENTED_EDGE( '', *, *, #216, .F. );
#186 = CARTESIAN_POINT( '', ( 43.0000000000000, 0.000000000000000, 0.000000000000000 ) );
#187 = DIRECTION( '', ( -1.00000000000000, -0.000000000000000, 0.000000000000000 ) );
#188 = DIRECTION( '', ( -0.000000000000000, 0.000000000000000, -1.00000000000000 ) );
#189 = SURFACE_STYLE_FILL_AREA( #217 );
#190 = ORIENTED_EDGE( '', *, *, #216, .T. );
#191 = ORIENTED_EDGE( '', *, *, #207, .F. );
#192 = CARTESIAN_POINT( '', ( 0.000000000000000, 51.0833333333333, 0.000000000000000 ) );
#193 = DIRECTION( '', ( 1.00000000000000, 0.000000000000000, -0.000000000000000 ) );
#194 = DIRECTION( '', ( -0.000000000000000, 0.000000000000000, -1.00000000000000 ) );
#195 = SURFACE_STYLE_FILL_AREA( #218 );
#196 = ORIENTED_EDGE( '', *, *, #208, .T. );
#197 = ORIENTED_EDGE( '', *, *, #214, .F. );
#198 = CARTESIAN_POINT( '', ( -6.00000000000000, 55.0000000000000, 0.000000000000000 ) );
#199 = DIRECTION( '', ( -1.00000000000000, 0.000000000000000, 0.000000000000000 ) );
#200 = DIRECTION( '', ( 0.000000000000000, 0.000000000000000, 1.00000000000000 ) );
#201 = FILL_AREA_STYLE( '', ( #219 ) );
#202 = EDGE_CURVE( '', #220, #220, #221, .T. );
#203 = EDGE_CURVE( '', #222, #222, #223, .T. );
#204 = FILL_AREA_STYLE( '', ( #224 ) );
#205 = EDGE_CURVE( '', #225, #225, #226, .T. );
#206 = FILL_AREA_STYLE( '', ( #227 ) );
#207 = EDGE_CURVE( '', #228, #228, #229, .T. );
#208 = EDGE_CURVE( '', #230, #230, #231, .T. );
#209 = FILL_AREA_STYLE( '', ( #232 ) );
#210 = EDGE_CURVE( '', #233, #233, #234, .T. );
#211 = FILL_AREA_STYLE( '', ( #235 ) );
#212 = EDGE_CURVE( '', #236, #236, #237, .T. );
#213 = FILL_AREA_STYLE( '', ( #238 ) );
#214 = EDGE_CURVE( '', #239, #239, #240, .T. );
#215 = FILL_AREA_STYLE( '', ( #241 ) );
#216 = EDGE_CURVE( '', #242, #242, #243, .T. );
#217 = FILL_AREA_STYLE( '', ( #244 ) );
#218 = FILL_AREA_STYLE( '', ( #245 ) );
#219 = FILL_AREA_STYLE_COLOUR( '', #246 );
#220 = VERTEX_POINT( '', #247 );
#221 = CIRCLE( '', #248, 66.7500000000000 );
#222 = VERTEX_POINT( '', #249 );
#223 = CIRCLE( '', #250, 65.5750000000000 );
#224 = FILL_AREA_STYLE_COLOUR( '', #251 );
#225 = VERTEX_POINT( '', #252 );
#226 = CIRCLE( '', #253, 55.0000000000000 );
#227 = FILL_AREA_STYLE_COLOUR( '', #254 );
#228 = VERTEX_POINT( '', #255 );
#229 = CIRCLE( '', #256, 51.0833333333000 );
#230 = VERTEX_POINT( '', #257 );
#231 = CIRCLE( '', #258, 51.0833333333000 );
#232 = FILL_AREA_STYLE_COLOUR( '', #259 );
#233 = VERTEX_POINT( '', #260 );
#234 = CIRCLE( '', #261, 65.5750000000000 );
#235 = FILL_AREA_STYLE_COLOUR( '', #262 );
#236 = VERTEX_POINT( '', #263 );
#237 = CIRCLE( '', #264, 55.0000000000000 );
#238 = FILL_AREA_STYLE_COLOUR( '', #265 );
#239 = VERTEX_POINT( '', #266 );
#240 = CIRCLE( '', #267, 55.0000000000000 );
#241 = FILL_AREA_STYLE_COLOUR( '', #268 );
#242 = VERTEX_POINT( '', #269 );
#243 = CIRCLE( '', #270, 55.0000000000000 );
#244 = FILL_AREA_STYLE_COLOUR( '', #271 );
#245 = FILL_AREA_STYLE_COLOUR( '', #272 );
#246 = COLOUR_RGB( '', 0.689999997600000, 0.689999997600000, 0.689999997600000 );
#247 = CARTESIAN_POINT( '', ( -3.00000000000000, 0.000000000000000, -66.7500000000000 ) );
#248 = AXIS2_PLACEMENT_3D( '', #273, #274, #275 );
#249 = CARTESIAN_POINT( '', ( 43.0000000000000, 0.000000000000000, -65.5750000000000 ) );
#250 = AXIS2_PLACEMENT_3D( '', #276, #277, #278 );
#251 = COLOUR_RGB( '', 0.689999997600000, 0.689999997600000, 0.689999997600000 );
#252 = CARTESIAN_POINT( '', ( 43.0000000000000, 0.000000000000000, -55.0000000000000 ) );
#253 = AXIS2_PLACEMENT_3D( '', #279, #280, #281 );
#254 = COLOUR_RGB( '', 0.689999997600000, 0.689999997600000, 0.689999997600000 );
#255 = CARTESIAN_POINT( '', ( 0.000000000000000, 0.000000000000000, -51.0833333333333 ) );
#256 = AXIS2_PLACEMENT_3D( '', #282, #283, #284 );
#257 = CARTESIAN_POINT( '', ( -6.00000000000000, 0.000000000000000, -51.0833333333333 ) );
#258 = AXIS2_PLACEMENT_3D( '', #285, #286, #287 );
#259 = COLOUR_RGB( '', 0.689999997600000, 0.689999997600000, 0.689999997600000 );
#260 = CARTESIAN_POINT( '', ( -47.0000000000000, 0.000000000000000, -65.5750000000000 ) );
#261 = AXIS2_PLACEMENT_3D( '', #288, #289, #290 );
#262 = COLOUR_RGB( '', 0.689999997600000, 0.689999997600000, 0.689999997600000 );
#263 = CARTESIAN_POINT( '', ( -47.0000000000000, 0.000000000000000, -55.0000000000000 ) );
#264 = AXIS2_PLACEMENT_3D( '', #291, #292, #293 );
#265 = COLOUR_RGB( '', 0.689999997600000, 0.689999997600000, 0.689999997600000 );
#266 = CARTESIAN_POINT( '', ( -6.00000000000000, 0.000000000000000, -55.0000000000000 ) );
#267 = AXIS2_PLACEMENT_3D( '', #294, #295, #296 );
#268 = COLOUR_RGB( '', 0.689999997600000, 0.689999997600000, 0.689999997600000 );
#269 = CARTESIAN_POINT( '', ( 0.000000000000000, 0.000000000000000, -55.0000000000000 ) );
#270 = AXIS2_PLACEMENT_3D( '', #297, #298, #299 );
#271 = COLOUR_RGB( '', 0.689999997600000, 0.689999997600000, 0.689999997600000 );
#272 = COLOUR_RGB( '', 0.689999997600000, 0.689999997600000, 0.689999997600000 );
#273 = CARTESIAN_POINT( '', ( -3.00000000000000, 0.000000000000000, 0.000000000000000 ) );
#274 = DIRECTION( '', ( 1.00000000000000, 0.000000000000000, -0.000000000000000 ) );
#275 = DIRECTION( '', ( -0.000000000000000, 0.000000000000000, -1.00000000000000 ) );
#276 = CARTESIAN_POINT( '', ( 43.0000000000000, 0.000000000000000, 0.000000000000000 ) );
#277 = DIRECTION( '', ( 1.00000000000000, 0.000000000000000, -0.000000000000000 ) );
#278 = DIRECTION( '', ( -0.000000000000000, 0.000000000000000, -1.00000000000000 ) );
#279 = CARTESIAN_POINT( '', ( 43.0000000000000, 0.000000000000000, 0.000000000000000 ) );
#280 = DIRECTION( '', ( 1.00000000000000, 0.000000000000000, -0.000000000000000 ) );
#281 = DIRECTION( '', ( -0.000000000000000, 0.000000000000000, -1.00000000000000 ) );
#282 = CARTESIAN_POINT( '', ( 0.000000000000000, 0.000000000000000, 0.000000000000000 ) );
#283 = DIRECTION( '', ( 1.00000000000000, 0.000000000000000, -0.000000000000000 ) );
#284 = DIRECTION( '', ( -0.000000000000000, 0.000000000000000, -1.00000000000000 ) );
#285 = CARTESIAN_POINT( '', ( -6.00000000000000, 0.000000000000000, 0.000000000000000 ) );
#286 = DIRECTION( '', ( 1.00000000000000, 0.000000000000000, -0.000000000000000 ) );
#287 = DIRECTION( '', ( -0.000000000000000, 0.000000000000000, -1.00000000000000 ) );
#288 = CARTESIAN_POINT( '', ( -47.0000000000000, 0.000000000000000, 0.000000000000000 ) );
#289 = DIRECTION( '', ( 1.00000000000000, 0.000000000000000, -0.000000000000000 ) );
#290 = DIRECTION( '', ( -0.000000000000000, 0.000000000000000, -1.00000000000000 ) );
#291 = CARTESIAN_POINT( '', ( -47.0000000000000, 0.000000000000000, 0.000000000000000 ) );
#292 = DIRECTION( '', ( 1.00000000000000, 0.000000000000000, -0.000000000000000 ) );
#293 = DIRECTION( '', ( -0.000000000000000, 0.000000000000000, -1.00000000000000 ) );
#294 = CARTESIAN_POINT( '', ( -6.00000000000000, 0.000000000000000, 0.000000000000000 ) );
#295 = DIRECTION( '', ( 1.00000000000000, 0.000000000000000, -0.000000000000000 ) );
#296 = DIRECTION( '', ( -0.000000000000000, 0.000000000000000, -1.00000000000000 ) );
#297 = CARTESIAN_POINT( '', ( 0.000000000000000, 0.000000000000000, 0.000000000000000 ) );
#298 = DIRECTION( '', ( 1.00000000000000, 0.000000000000000, -0.000000000000000 ) );
#299 = DIRECTION( '', ( -0.000000000000000, 0.000000000000000, -1.00000000000000 ) );
ENDSEC;
END-ISO-10303-21;
