ISO-10303-21;
HEADER;
/* Generated by software containing ST-Developer
 * from STEP Tools, Inc. (www.steptools.com) 
 */

FILE_DESCRIPTION(
/* description */ (''),
/* implementation_level */ '2;1');

FILE_NAME(
/* name */ 'C:\\Users\\Gabriele\\Desktop\\catalogo\\TR40\\TR40090F.stp',

/* time_stamp */ '2016-10-17T15:25:06+02:00',
/* author */ ('Gabriele'),
/* organization */ (''),
/* preprocessor_version */ 'ST-DEVELOPER v16.5',
/* originating_system */ 'Autodesk Inventor 2017',
/* authorisation */ '');

FILE_SCHEMA (('AUTOMOTIVE_DESIGN { 1 0 10303 214 3 1 1 }'));
ENDSEC;

DATA;
#10=MECHANICAL_DESIGN_GEOMETRIC_PRESENTATION_REPRESENTATION('',(#13),#481);
#11=SHAPE_REPRESENTATION_RELATIONSHIP('SRR','None',#490,#12);
#12=ADVANCED_BREP_SHAPE_REPRESENTATION('',(#14),#480);
#13=STYLED_ITEM('',(#499),#14);
#14=MANIFOLD_SOLID_BREP('Solido1',#200);
#15=B_SPLINE_CURVE_WITH_KNOTS('',3,(#333,#334,#335,#336,#337,#338,#339,
#340,#341,#342,#343,#344,#345,#346,#347,#348,#349,#350,#351,#352,#353,#354,
#355,#356,#357,#358,#359,#360,#361,#362,#363,#364,#365,#366,#367,#368,#369,
#370,#371,#372,#373,#374,#375,#376,#377,#378,#379,#380,#381,#382,#383,#384,
#385,#386,#387,#388,#389,#390,#391,#392,#393,#394,#395,#396,#397,#398),
 .UNSPECIFIED.,.T.,.F.,(4,2,2,2,2,2,2,2,2,2,2,2,2,2,2,2,2,2,2,2,2,2,2,2,
2,2,2,2,2,2,2,2,4),(0.,0.454341608002257,0.908683216004515,1.36302482400677,
1.81736643200903,2.26993593040429,2.72250542879956,3.17507492719482,3.62764442559009,
4.08021392398535,4.53278342238061,4.98535292077588,5.43792241917114,5.8922640271734,
6.34660563517565,6.80094724317791,7.25528885118017,7.70963045918243,8.16397206718468,
8.61831367518694,9.0726552831892,9.52522478158446,9.97779427997973,10.430363778375,
10.8829332767703,11.3355027751655,11.7880722735608,12.240641771956,12.6932112703513,
13.1475528783536,13.6018944863558,14.0562360943581,14.5105777023603),
 .UNSPECIFIED.);
#16=B_SPLINE_CURVE_WITH_KNOTS('',3,(#409,#410,#411,#412,#413,#414,#415,
#416,#417,#418,#419,#420,#421,#422,#423,#424,#425,#426,#427,#428,#429,#430,
#431,#432,#433,#434,#435,#436,#437,#438,#439,#440,#441,#442,#443,#444,#445,
#446,#447,#448,#449,#450,#451,#452,#453,#454,#455,#456,#457,#458,#459,#460,
#461,#462,#463,#464,#465,#466,#467,#468,#469,#470,#471,#472,#473,#474),
 .UNSPECIFIED.,.T.,.F.,(4,2,2,2,2,2,2,2,2,2,2,2,2,2,2,2,2,2,2,2,2,2,2,2,
2,2,2,2,2,2,2,2,4),(0.,0.592403763736306,1.18480752747261,1.77721129120892,
2.36961505494523,2.95889884066953,3.54818262639383,4.13746641211813,4.72675019784243,
5.31603398356672,5.90531776929102,6.49460155501532,7.08388534073962,7.67628910447593,
8.26869286821224,8.86109663194854,9.45350039568485,10.0459041594212,10.6383079231575,
11.2307116868938,11.8231154506301,12.4123992363544,13.0016830220787,13.590966807803,
14.1802505935273,14.7695343792516,15.3588181649759,15.9481019507002,16.5373857364245,
17.1297895001608,17.7221932638971,18.3145970276334,18.9070007913697),
 .UNSPECIFIED.);
#17=PLANE('',#207);
#18=PLANE('',#214);
#19=PLANE('',#221);
#20=PLANE('',#228);
#21=PLANE('',#231);
#22=PLANE('',#232);
#23=CYLINDRICAL_SURFACE('',#205,45.);
#24=CYLINDRICAL_SURFACE('',#212,45.);
#25=CYLINDRICAL_SURFACE('',#219,25.);
#26=CYLINDRICAL_SURFACE('',#223,23.5);
#27=CYLINDRICAL_SURFACE('',#225,43.5);
#28=CYLINDRICAL_SURFACE('',#229,30.5);
#29=CYLINDRICAL_SURFACE('',#230,53.);
#30=FACE_BOUND('',#65,.T.);
#31=FACE_BOUND('',#67,.T.);
#32=FACE_BOUND('',#69,.T.);
#33=FACE_BOUND('',#71,.T.);
#34=FACE_BOUND('',#73,.T.);
#35=FACE_BOUND('',#75,.T.);
#36=FACE_BOUND('',#77,.T.);
#37=FACE_BOUND('',#79,.T.);
#38=FACE_BOUND('',#81,.T.);
#39=FACE_BOUND('',#83,.T.);
#40=FACE_BOUND('',#85,.T.);
#41=FACE_BOUND('',#86,.T.);
#42=FACE_BOUND('',#88,.T.);
#43=FACE_BOUND('',#90,.T.);
#44=FACE_BOUND('',#92,.T.);
#45=FACE_BOUND('',#93,.T.);
#46=FACE_BOUND('',#95,.T.);
#47=FACE_BOUND('',#97,.T.);
#48=FACE_OUTER_BOUND('',#64,.T.);
#49=FACE_OUTER_BOUND('',#66,.T.);
#50=FACE_OUTER_BOUND('',#68,.T.);
#51=FACE_OUTER_BOUND('',#70,.T.);
#52=FACE_OUTER_BOUND('',#72,.T.);
#53=FACE_OUTER_BOUND('',#74,.T.);
#54=FACE_OUTER_BOUND('',#76,.T.);
#55=FACE_OUTER_BOUND('',#78,.T.);
#56=FACE_OUTER_BOUND('',#80,.T.);
#57=FACE_OUTER_BOUND('',#82,.T.);
#58=FACE_OUTER_BOUND('',#84,.T.);
#59=FACE_OUTER_BOUND('',#87,.T.);
#60=FACE_OUTER_BOUND('',#89,.T.);
#61=FACE_OUTER_BOUND('',#91,.T.);
#62=FACE_OUTER_BOUND('',#94,.T.);
#63=FACE_OUTER_BOUND('',#96,.T.);
#64=EDGE_LOOP('',(#147));
#65=EDGE_LOOP('',(#148));
#66=EDGE_LOOP('',(#149));
#67=EDGE_LOOP('',(#150));
#68=EDGE_LOOP('',(#151));
#69=EDGE_LOOP('',(#152));
#70=EDGE_LOOP('',(#153));
#71=EDGE_LOOP('',(#154));
#72=EDGE_LOOP('',(#155));
#73=EDGE_LOOP('',(#156));
#74=EDGE_LOOP('',(#157));
#75=EDGE_LOOP('',(#158));
#76=EDGE_LOOP('',(#159));
#77=EDGE_LOOP('',(#160));
#78=EDGE_LOOP('',(#161));
#79=EDGE_LOOP('',(#162));
#80=EDGE_LOOP('',(#163));
#81=EDGE_LOOP('',(#164));
#82=EDGE_LOOP('',(#165));
#83=EDGE_LOOP('',(#166));
#84=EDGE_LOOP('',(#167));
#85=EDGE_LOOP('',(#168));
#86=EDGE_LOOP('',(#169));
#87=EDGE_LOOP('',(#170));
#88=EDGE_LOOP('',(#171));
#89=EDGE_LOOP('',(#172));
#90=EDGE_LOOP('',(#173));
#91=EDGE_LOOP('',(#174));
#92=EDGE_LOOP('',(#175));
#93=EDGE_LOOP('',(#176));
#94=EDGE_LOOP('',(#177));
#95=EDGE_LOOP('',(#178));
#96=EDGE_LOOP('',(#179));
#97=EDGE_LOOP('',(#180));
#98=CIRCLE('',#203,45.);
#99=CIRCLE('',#204,45.5);
#100=CIRCLE('',#206,45.);
#101=CIRCLE('',#208,53.);
#102=CIRCLE('',#210,45.);
#103=CIRCLE('',#211,45.5);
#104=CIRCLE('',#213,45.);
#105=CIRCLE('',#215,53.);
#106=CIRCLE('',#217,25.);
#107=CIRCLE('',#218,25.5);
#108=CIRCLE('',#220,25.);
#109=CIRCLE('',#222,30.5);
#110=CIRCLE('',#224,23.5);
#111=CIRCLE('',#226,43.5);
#112=CIRCLE('',#227,43.5);
#113=VERTEX_POINT('',#299);
#114=VERTEX_POINT('',#301);
#115=VERTEX_POINT('',#304);
#116=VERTEX_POINT('',#307);
#117=VERTEX_POINT('',#310);
#118=VERTEX_POINT('',#312);
#119=VERTEX_POINT('',#315);
#120=VERTEX_POINT('',#318);
#121=VERTEX_POINT('',#321);
#122=VERTEX_POINT('',#323);
#123=VERTEX_POINT('',#326);
#124=VERTEX_POINT('',#329);
#125=VERTEX_POINT('',#332);
#126=VERTEX_POINT('',#399);
#127=VERTEX_POINT('',#402);
#128=VERTEX_POINT('',#404);
#129=VERTEX_POINT('',#408);
#130=EDGE_CURVE('',#113,#113,#98,.T.);
#131=EDGE_CURVE('',#114,#114,#99,.T.);
#132=EDGE_CURVE('',#115,#115,#100,.T.);
#133=EDGE_CURVE('',#116,#116,#101,.T.);
#134=EDGE_CURVE('',#117,#117,#102,.T.);
#135=EDGE_CURVE('',#118,#118,#103,.T.);
#136=EDGE_CURVE('',#119,#119,#104,.T.);
#137=EDGE_CURVE('',#120,#120,#105,.T.);
#138=EDGE_CURVE('',#121,#121,#106,.T.);
#139=EDGE_CURVE('',#122,#122,#107,.T.);
#140=EDGE_CURVE('',#123,#123,#108,.T.);
#141=EDGE_CURVE('',#124,#124,#109,.T.);
#142=EDGE_CURVE('',#125,#125,#15,.T.);
#143=EDGE_CURVE('',#126,#126,#110,.T.);
#144=EDGE_CURVE('',#127,#127,#111,.T.);
#145=EDGE_CURVE('',#128,#128,#112,.T.);
#146=EDGE_CURVE('',#129,#129,#16,.T.);
#147=ORIENTED_EDGE('',*,*,#130,.T.);
#148=ORIENTED_EDGE('',*,*,#131,.T.);
#149=ORIENTED_EDGE('',*,*,#132,.T.);
#150=ORIENTED_EDGE('',*,*,#130,.F.);
#151=ORIENTED_EDGE('',*,*,#133,.T.);
#152=ORIENTED_EDGE('',*,*,#131,.F.);
#153=ORIENTED_EDGE('',*,*,#134,.T.);
#154=ORIENTED_EDGE('',*,*,#135,.T.);
#155=ORIENTED_EDGE('',*,*,#136,.F.);
#156=ORIENTED_EDGE('',*,*,#134,.F.);
#157=ORIENTED_EDGE('',*,*,#137,.T.);
#158=ORIENTED_EDGE('',*,*,#135,.F.);
#159=ORIENTED_EDGE('',*,*,#138,.T.);
#160=ORIENTED_EDGE('',*,*,#139,.T.);
#161=ORIENTED_EDGE('',*,*,#140,.T.);
#162=ORIENTED_EDGE('',*,*,#138,.F.);
#163=ORIENTED_EDGE('',*,*,#141,.F.);
#164=ORIENTED_EDGE('',*,*,#139,.F.);
#165=ORIENTED_EDGE('',*,*,#142,.F.);
#166=ORIENTED_EDGE('',*,*,#143,.F.);
#167=ORIENTED_EDGE('',*,*,#144,.F.);
#168=ORIENTED_EDGE('',*,*,#142,.T.);
#169=ORIENTED_EDGE('',*,*,#145,.F.);
#170=ORIENTED_EDGE('',*,*,#140,.F.);
#171=ORIENTED_EDGE('',*,*,#143,.T.);
#172=ORIENTED_EDGE('',*,*,#141,.T.);
#173=ORIENTED_EDGE('',*,*,#146,.F.);
#174=ORIENTED_EDGE('',*,*,#133,.F.);
#175=ORIENTED_EDGE('',*,*,#137,.F.);
#176=ORIENTED_EDGE('',*,*,#146,.T.);
#177=ORIENTED_EDGE('',*,*,#136,.T.);
#178=ORIENTED_EDGE('',*,*,#145,.T.);
#179=ORIENTED_EDGE('',*,*,#132,.F.);
#180=ORIENTED_EDGE('',*,*,#144,.T.);
#181=TOROIDAL_SURFACE('',#202,45.5,0.5);
#182=TOROIDAL_SURFACE('',#209,45.5,0.5);
#183=TOROIDAL_SURFACE('',#216,25.5,0.5);
#184=ADVANCED_FACE('',(#48,#30),#181,.T.);
#185=ADVANCED_FACE('',(#49,#31),#23,.F.);
#186=ADVANCED_FACE('',(#50,#32),#17,.T.);
#187=ADVANCED_FACE('',(#51,#33),#182,.T.);
#188=ADVANCED_FACE('',(#52,#34),#24,.F.);
#189=ADVANCED_FACE('',(#53,#35),#18,.F.);
#190=ADVANCED_FACE('',(#54,#36),#183,.T.);
#191=ADVANCED_FACE('',(#55,#37),#25,.F.);
#192=ADVANCED_FACE('',(#56,#38),#19,.T.);
#193=ADVANCED_FACE('',(#57,#39),#26,.F.);
#194=ADVANCED_FACE('',(#58,#40,#41),#27,.F.);
#195=ADVANCED_FACE('',(#59,#42),#20,.T.);
#196=ADVANCED_FACE('',(#60,#43),#28,.T.);
#197=ADVANCED_FACE('',(#61,#44,#45),#29,.T.);
#198=ADVANCED_FACE('',(#62,#46),#21,.F.);
#199=ADVANCED_FACE('',(#63,#47),#22,.T.);
#200=CLOSED_SHELL('',(#184,#185,#186,#187,#188,#189,#190,#191,#192,#193,
#194,#195,#196,#197,#198,#199));
#201=AXIS2_PLACEMENT_3D('placement',#297,#233,#234);
#202=AXIS2_PLACEMENT_3D('',#298,#235,#236);
#203=AXIS2_PLACEMENT_3D('',#300,#237,#238);
#204=AXIS2_PLACEMENT_3D('',#302,#239,#240);
#205=AXIS2_PLACEMENT_3D('',#303,#241,#242);
#206=AXIS2_PLACEMENT_3D('',#305,#243,#244);
#207=AXIS2_PLACEMENT_3D('',#306,#245,#246);
#208=AXIS2_PLACEMENT_3D('',#308,#247,#248);
#209=AXIS2_PLACEMENT_3D('',#309,#249,#250);
#210=AXIS2_PLACEMENT_3D('',#311,#251,#252);
#211=AXIS2_PLACEMENT_3D('',#313,#253,#254);
#212=AXIS2_PLACEMENT_3D('',#314,#255,#256);
#213=AXIS2_PLACEMENT_3D('',#316,#257,#258);
#214=AXIS2_PLACEMENT_3D('',#317,#259,#260);
#215=AXIS2_PLACEMENT_3D('',#319,#261,#262);
#216=AXIS2_PLACEMENT_3D('',#320,#263,#264);
#217=AXIS2_PLACEMENT_3D('',#322,#265,#266);
#218=AXIS2_PLACEMENT_3D('',#324,#267,#268);
#219=AXIS2_PLACEMENT_3D('',#325,#269,#270);
#220=AXIS2_PLACEMENT_3D('',#327,#271,#272);
#221=AXIS2_PLACEMENT_3D('',#328,#273,#274);
#222=AXIS2_PLACEMENT_3D('',#330,#275,#276);
#223=AXIS2_PLACEMENT_3D('',#331,#277,#278);
#224=AXIS2_PLACEMENT_3D('',#400,#279,#280);
#225=AXIS2_PLACEMENT_3D('',#401,#281,#282);
#226=AXIS2_PLACEMENT_3D('',#403,#283,#284);
#227=AXIS2_PLACEMENT_3D('',#405,#285,#286);
#228=AXIS2_PLACEMENT_3D('',#406,#287,#288);
#229=AXIS2_PLACEMENT_3D('',#407,#289,#290);
#230=AXIS2_PLACEMENT_3D('',#475,#291,#292);
#231=AXIS2_PLACEMENT_3D('',#476,#293,#294);
#232=AXIS2_PLACEMENT_3D('',#477,#295,#296);
#233=DIRECTION('axis',(0.,0.,1.));
#234=DIRECTION('refdir',(1.,0.,0.));
#235=DIRECTION('center_axis',(0.,0.,-1.));
#236=DIRECTION('ref_axis',(-1.,0.,0.));
#237=DIRECTION('center_axis',(0.,0.,-1.));
#238=DIRECTION('ref_axis',(-1.,0.,0.));
#239=DIRECTION('center_axis',(0.,0.,1.));
#240=DIRECTION('ref_axis',(-1.,0.,0.));
#241=DIRECTION('center_axis',(0.,0.,-1.));
#242=DIRECTION('ref_axis',(-1.,0.,0.));
#243=DIRECTION('center_axis',(0.,0.,-1.));
#244=DIRECTION('ref_axis',(-1.,0.,0.));
#245=DIRECTION('center_axis',(0.,0.,1.));
#246=DIRECTION('ref_axis',(1.,0.,0.));
#247=DIRECTION('center_axis',(0.,0.,1.));
#248=DIRECTION('ref_axis',(-1.,0.,0.));
#249=DIRECTION('center_axis',(0.,0.,1.));
#250=DIRECTION('ref_axis',(1.,0.,0.));
#251=DIRECTION('center_axis',(0.,0.,1.));
#252=DIRECTION('ref_axis',(-1.,0.,0.));
#253=DIRECTION('center_axis',(0.,0.,-1.));
#254=DIRECTION('ref_axis',(-1.,0.,0.));
#255=DIRECTION('center_axis',(0.,0.,-1.));
#256=DIRECTION('ref_axis',(-1.,0.,0.));
#257=DIRECTION('center_axis',(0.,0.,-1.));
#258=DIRECTION('ref_axis',(-1.,0.,0.));
#259=DIRECTION('center_axis',(0.,0.,1.));
#260=DIRECTION('ref_axis',(1.,0.,0.));
#261=DIRECTION('center_axis',(0.,0.,-1.));
#262=DIRECTION('ref_axis',(-1.,0.,0.));
#263=DIRECTION('center_axis',(0.,-1.,0.));
#264=DIRECTION('ref_axis',(0.,0.,-1.));
#265=DIRECTION('center_axis',(0.,-1.,0.));
#266=DIRECTION('ref_axis',(-1.,0.,0.));
#267=DIRECTION('center_axis',(0.,1.,0.));
#268=DIRECTION('ref_axis',(-1.,0.,0.));
#269=DIRECTION('center_axis',(0.,-1.,0.));
#270=DIRECTION('ref_axis',(-1.,0.,0.));
#271=DIRECTION('center_axis',(0.,-1.,0.));
#272=DIRECTION('ref_axis',(-1.,0.,0.));
#273=DIRECTION('center_axis',(0.,1.,0.));
#274=DIRECTION('ref_axis',(0.,0.,1.));
#275=DIRECTION('center_axis',(0.,-1.,0.));
#276=DIRECTION('ref_axis',(1.,0.,0.));
#277=DIRECTION('center_axis',(0.,-1.,0.));
#278=DIRECTION('ref_axis',(-1.,0.,0.));
#279=DIRECTION('center_axis',(0.,-1.,0.));
#280=DIRECTION('ref_axis',(-1.,0.,0.));
#281=DIRECTION('center_axis',(0.,0.,1.));
#282=DIRECTION('ref_axis',(1.,0.,0.));
#283=DIRECTION('center_axis',(0.,0.,-1.));
#284=DIRECTION('ref_axis',(1.,0.,0.));
#285=DIRECTION('center_axis',(0.,0.,1.));
#286=DIRECTION('ref_axis',(1.,0.,0.));
#287=DIRECTION('center_axis',(0.,1.,0.));
#288=DIRECTION('ref_axis',(0.,0.,1.));
#289=DIRECTION('center_axis',(0.,-1.,0.));
#290=DIRECTION('ref_axis',(1.,0.,0.));
#291=DIRECTION('center_axis',(0.,0.,1.));
#292=DIRECTION('ref_axis',(-1.,0.,0.));
#293=DIRECTION('center_axis',(0.,0.,1.));
#294=DIRECTION('ref_axis',(1.,0.,0.));
#295=DIRECTION('center_axis',(0.,0.,1.));
#296=DIRECTION('ref_axis',(1.,0.,0.));
#297=CARTESIAN_POINT('',(0.,0.,0.));
#298=CARTESIAN_POINT('Origin',(0.,0.,97.5));
#299=CARTESIAN_POINT('',(45.,-5.51091059616309E-15,97.5));
#300=CARTESIAN_POINT('Origin',(0.,0.,97.5));
#301=CARTESIAN_POINT('',(45.5,5.57214293612046E-15,98.));
#302=CARTESIAN_POINT('Origin',(0.,0.,98.));
#303=CARTESIAN_POINT('Origin',(0.,0.,98.));
#304=CARTESIAN_POINT('',(45.,5.51091059616309E-15,47.));
#305=CARTESIAN_POINT('Origin',(0.,0.,47.));
#306=CARTESIAN_POINT('Origin',(-5.40885669623414E-16,0.,98.));
#307=CARTESIAN_POINT('',(53.,6.49062803548097E-15,98.));
#308=CARTESIAN_POINT('Origin',(0.,0.,98.));
#309=CARTESIAN_POINT('Origin',(0.,0.,-97.5));
#310=CARTESIAN_POINT('',(45.,5.51091059616309E-15,-97.5));
#311=CARTESIAN_POINT('Origin',(0.,0.,-97.5));
#312=CARTESIAN_POINT('',(45.5,-5.57214293612046E-15,-98.));
#313=CARTESIAN_POINT('Origin',(0.,0.,-98.));
#314=CARTESIAN_POINT('Origin',(0.,0.,-98.));
#315=CARTESIAN_POINT('',(45.,5.51091059616309E-15,-47.));
#316=CARTESIAN_POINT('Origin',(0.,0.,-47.));
#317=CARTESIAN_POINT('Origin',(-5.40885669623414E-16,0.,-98.));
#318=CARTESIAN_POINT('',(53.,6.49062803548097E-15,-98.));
#319=CARTESIAN_POINT('Origin',(0.,0.,-98.));
#320=CARTESIAN_POINT('Origin',(0.,77.5,0.));
#321=CARTESIAN_POINT('',(25.,77.5,3.06161699786838E-15));
#322=CARTESIAN_POINT('Origin',(0.,77.5,0.));
#323=CARTESIAN_POINT('',(25.5,78.,-3.12284933782575E-15));
#324=CARTESIAN_POINT('Origin',(0.,78.,0.));
#325=CARTESIAN_POINT('Origin',(0.,78.,0.));
#326=CARTESIAN_POINT('',(25.,47.,-3.06161699786838E-15));
#327=CARTESIAN_POINT('Origin',(0.,47.,0.));
#328=CARTESIAN_POINT('Origin',(3.11264394783286E-16,78.,0.));
#329=CARTESIAN_POINT('',(-30.5,78.,3.73517273739943E-15));
#330=CARTESIAN_POINT('Origin',(0.,78.,0.));
#331=CARTESIAN_POINT('Origin',(0.,47.,0.));
#332=CARTESIAN_POINT('',(23.5,36.6060104354463,8.88178419700125E-15));
#333=CARTESIAN_POINT('Ctrl Pts',(23.5,36.6060104354463,8.88178419700125E-15));
#334=CARTESIAN_POINT('Ctrl Pts',(23.5,36.6060104354463,-1.51447202667418));
#335=CARTESIAN_POINT('Ctrl Pts',(23.3513347189498,36.7027926220794,-3.06663289884314));
#336=CARTESIAN_POINT('Ctrl Pts',(22.7401648849749,37.084561743431,-6.12976119131024));
#337=CARTESIAN_POINT('Ctrl Pts',(22.2779378189271,37.3688129502976,-7.64087562138545));
#338=CARTESIAN_POINT('Ctrl Pts',(21.0707575373691,38.0625506255615,-10.5220154180107));
#339=CARTESIAN_POINT('Ctrl Pts',(20.3248372307131,38.4716532276457,-11.8949183045661));
#340=CARTESIAN_POINT('Ctrl Pts',(18.6120477485956,39.3288544063543,-14.4284361189888));
#341=CARTESIAN_POINT('Ctrl Pts',(17.6448971933552,39.7761822596538,-15.5891215224126));
#342=CARTESIAN_POINT('Ctrl Pts',(15.5931306861697,40.6242749623021,-17.6408880295981));
#343=CARTESIAN_POINT('Ctrl Pts',(14.4344637576297,41.0568361961741,-18.6074338884026));
#344=CARTESIAN_POINT('Ctrl Pts',(11.9002263147633,41.8617027368716,-20.3217851994625));
#345=CARTESIAN_POINT('Ctrl Pts',(10.5245595829615,42.2334267180081,-21.0697212904035));
#346=CARTESIAN_POINT('Ctrl Pts',(7.63752647998031,42.8497010444472,-22.279311338276));
#347=CARTESIAN_POINT('Ctrl Pts',(6.12333581059003,43.0944186208973,-22.7419355659591));
#348=CARTESIAN_POINT('Ctrl Pts',(3.05888720421282,43.4196656689247,-23.3523892528993));
#349=CARTESIAN_POINT('Ctrl Pts',(1.50856499465088,43.5,-23.5));
#350=CARTESIAN_POINT('Ctrl Pts',(-1.50856499465088,43.5,-23.5));
#351=CARTESIAN_POINT('Ctrl Pts',(-3.05888720421281,43.4196656689247,-23.3523892528993));
#352=CARTESIAN_POINT('Ctrl Pts',(-6.12333581059002,43.0944186208973,-22.7419355659591));
#353=CARTESIAN_POINT('Ctrl Pts',(-7.6375264799803,42.8497010444472,-22.279311338276));
#354=CARTESIAN_POINT('Ctrl Pts',(-10.5245595829615,42.2334267180082,-21.0697212904035));
#355=CARTESIAN_POINT('Ctrl Pts',(-11.9002263147633,41.8617027368716,-20.3217851994625));
#356=CARTESIAN_POINT('Ctrl Pts',(-14.4344637576297,41.0568361961741,-18.6074338884026));
#357=CARTESIAN_POINT('Ctrl Pts',(-15.5931306861697,40.6242749623021,-17.6408880295981));
#358=CARTESIAN_POINT('Ctrl Pts',(-17.6448971933552,39.7761822596538,-15.5891215224126));
#359=CARTESIAN_POINT('Ctrl Pts',(-18.6120477485956,39.3288544063543,-14.4284361189888));
#360=CARTESIAN_POINT('Ctrl Pts',(-20.3248372307131,38.4716532276457,-11.8949183045661));
#361=CARTESIAN_POINT('Ctrl Pts',(-21.0707575373691,38.0625506255615,-10.5220154180107));
#362=CARTESIAN_POINT('Ctrl Pts',(-22.277937818927,37.3688129502976,-7.64087562138546));
#363=CARTESIAN_POINT('Ctrl Pts',(-22.7401648849749,37.084561743431,-6.12976119131025));
#364=CARTESIAN_POINT('Ctrl Pts',(-23.3513347189498,36.7027926220794,-3.06663289884315));
#365=CARTESIAN_POINT('Ctrl Pts',(-23.5,36.6060104354463,-1.51447202667418));
#366=CARTESIAN_POINT('Ctrl Pts',(-23.5,36.6060104354463,1.5144720266742));
#367=CARTESIAN_POINT('Ctrl Pts',(-23.3513347189498,36.7027926220794,3.06663289884317));
#368=CARTESIAN_POINT('Ctrl Pts',(-22.7401648849749,37.084561743431,6.12976119131026));
#369=CARTESIAN_POINT('Ctrl Pts',(-22.277937818927,37.3688129502976,7.64087562138546));
#370=CARTESIAN_POINT('Ctrl Pts',(-21.0707575373691,38.0625506255615,10.5220154180107));
#371=CARTESIAN_POINT('Ctrl Pts',(-20.3248372307131,38.4716532276457,11.8949183045661));
#372=CARTESIAN_POINT('Ctrl Pts',(-18.6120477485956,39.3288544063543,14.4284361189888));
#373=CARTESIAN_POINT('Ctrl Pts',(-17.6448971933552,39.7761822596538,15.5891215224125));
#374=CARTESIAN_POINT('Ctrl Pts',(-15.5931306861697,40.6242749623021,17.6408880295981));
#375=CARTESIAN_POINT('Ctrl Pts',(-14.4344637576297,41.0568361961741,18.6074338884026));
#376=CARTESIAN_POINT('Ctrl Pts',(-11.9002263147633,41.8617027368715,20.3217851994625));
#377=CARTESIAN_POINT('Ctrl Pts',(-10.5245595829615,42.2334267180082,21.0697212904035));
#378=CARTESIAN_POINT('Ctrl Pts',(-7.6375264799803,42.8497010444472,22.279311338276));
#379=CARTESIAN_POINT('Ctrl Pts',(-6.12333581059002,43.0944186208973,22.7419355659591));
#380=CARTESIAN_POINT('Ctrl Pts',(-3.05888720421281,43.4196656689247,23.3523892528993));
#381=CARTESIAN_POINT('Ctrl Pts',(-1.50856499465088,43.5,23.5));
#382=CARTESIAN_POINT('Ctrl Pts',(1.50856499465087,43.5,23.5));
#383=CARTESIAN_POINT('Ctrl Pts',(3.0588872042128,43.4196656689247,23.3523892528993));
#384=CARTESIAN_POINT('Ctrl Pts',(6.12333581059001,43.0944186208973,22.7419355659591));
#385=CARTESIAN_POINT('Ctrl Pts',(7.63752647998028,42.8497010444472,22.279311338276));
#386=CARTESIAN_POINT('Ctrl Pts',(10.5245595829615,42.2334267180082,21.0697212904035));
#387=CARTESIAN_POINT('Ctrl Pts',(11.9002263147633,41.8617027368716,20.3217851994625));
#388=CARTESIAN_POINT('Ctrl Pts',(14.4344637576297,41.0568361961741,18.6074338884026));
#389=CARTESIAN_POINT('Ctrl Pts',(15.5931306861696,40.6242749623022,17.6408880295981));
#390=CARTESIAN_POINT('Ctrl Pts',(17.6448971933552,39.7761822596538,15.5891215224126));
#391=CARTESIAN_POINT('Ctrl Pts',(18.6120477485956,39.3288544063543,14.4284361189888));
#392=CARTESIAN_POINT('Ctrl Pts',(20.3248372307131,38.4716532276457,11.8949183045661));
#393=CARTESIAN_POINT('Ctrl Pts',(21.0707575373691,38.0625506255615,10.5220154180108));
#394=CARTESIAN_POINT('Ctrl Pts',(22.277937818927,37.3688129502976,7.64087562138547));
#395=CARTESIAN_POINT('Ctrl Pts',(22.7401648849749,37.084561743431,6.12976119131027));
#396=CARTESIAN_POINT('Ctrl Pts',(23.3513347189498,36.7027926220794,3.06663289884316));
#397=CARTESIAN_POINT('Ctrl Pts',(23.5,36.6060104354463,1.5144720266742));
#398=CARTESIAN_POINT('Ctrl Pts',(23.5,36.6060104354463,7.21644966006352E-15));
#399=CARTESIAN_POINT('',(23.5,47.,-2.87791997799628E-15));
#400=CARTESIAN_POINT('Origin',(0.,47.,0.));
#401=CARTESIAN_POINT('Origin',(0.,0.,-47.));
#402=CARTESIAN_POINT('',(-43.5,5.32721357629099E-15,47.));
#403=CARTESIAN_POINT('Origin',(0.,0.,47.));
#404=CARTESIAN_POINT('',(-43.5,5.32721357629099E-15,-47.));
#405=CARTESIAN_POINT('Origin',(0.,0.,-47.));
#406=CARTESIAN_POINT('Origin',(-1.43937264275587E-15,47.,0.));
#407=CARTESIAN_POINT('Origin',(0.,78.,0.));
#408=CARTESIAN_POINT('',(30.5,43.3445498303997,0.));
#409=CARTESIAN_POINT('Ctrl Pts',(30.5,43.3445498303997,0.));
#410=CARTESIAN_POINT('Ctrl Pts',(30.5,43.3445498303997,1.97467921245435));
#411=CARTESIAN_POINT('Ctrl Pts',(30.3053233053057,43.4835614332505,3.99463469261182));
#412=CARTESIAN_POINT('Ctrl Pts',(29.5087600446427,44.0280117042804,7.97513694286319));
#413=CARTESIAN_POINT('Ctrl Pts',(28.907267827481,44.432255200559,9.93592600016449));
#414=CARTESIAN_POINT('Ctrl Pts',(27.3394693233737,45.413749495785,13.6713728687613));
#415=CARTESIAN_POINT('Ctrl Pts',(26.3718957518084,45.9904095256585,15.4498528213314));
#416=CARTESIAN_POINT('Ctrl Pts',(24.1516476012015,47.1942006149464,18.7315978069923));
#417=CARTESIAN_POINT('Ctrl Pts',(22.898556714382,47.8203070614163,20.2349569379974));
#418=CARTESIAN_POINT('Ctrl Pts',(20.2419710500303,49.003733977825,22.8915426023491));
#419=CARTESIAN_POINT('Ctrl Pts',(18.7421989615407,49.6058193896333,24.1435197195794));
#420=CARTESIAN_POINT('Ctrl Pts',(15.4593623879826,50.7248997409241,26.3664119894894));
#421=CARTESIAN_POINT('Ctrl Pts',(13.6761488862987,51.2411321011503,27.3374909074734));
#422=CARTESIAN_POINT('Ctrl Pts',(9.93041751490574,52.096808766401,28.9095536615132));
#423=CARTESIAN_POINT('Ctrl Pts',(7.96414923745886,52.4365279403789,29.5118044438585));
#424=CARTESIAN_POINT('Ctrl Pts',(3.98112494386343,52.8882574841974,30.3071760283381));
#425=CARTESIAN_POINT('Ctrl Pts',(1.96427928574767,53.,30.5));
#426=CARTESIAN_POINT('Ctrl Pts',(-1.96427928574766,53.,30.5));
#427=CARTESIAN_POINT('Ctrl Pts',(-3.98112494386342,52.8882574841974,30.3071760283381));
#428=CARTESIAN_POINT('Ctrl Pts',(-7.96414923745886,52.4365279403789,29.5118044438585));
#429=CARTESIAN_POINT('Ctrl Pts',(-9.93041751490574,52.096808766401,28.9095536615132));
#430=CARTESIAN_POINT('Ctrl Pts',(-13.6761488862987,51.2411321011503,27.3374909074734));
#431=CARTESIAN_POINT('Ctrl Pts',(-15.4593623879826,50.7248997409241,26.3664119894894));
#432=CARTESIAN_POINT('Ctrl Pts',(-18.7421989615407,49.6058193896333,24.1435197195794));
#433=CARTESIAN_POINT('Ctrl Pts',(-20.2419710500303,49.003733977825,22.8915426023491));
#434=CARTESIAN_POINT('Ctrl Pts',(-22.898556714382,47.8203070614163,20.2349569379974));
#435=CARTESIAN_POINT('Ctrl Pts',(-24.1516476012015,47.1942006149464,18.7315978069923));
#436=CARTESIAN_POINT('Ctrl Pts',(-26.3718957518084,45.9904095256585,15.4498528213314));
#437=CARTESIAN_POINT('Ctrl Pts',(-27.3394693233737,45.413749495785,13.6713728687613));
#438=CARTESIAN_POINT('Ctrl Pts',(-28.907267827481,44.432255200559,9.93592600016449));
#439=CARTESIAN_POINT('Ctrl Pts',(-29.5087600446427,44.0280117042804,7.97513694286318));
#440=CARTESIAN_POINT('Ctrl Pts',(-30.3053233053057,43.4835614332505,3.99463469261181));
#441=CARTESIAN_POINT('Ctrl Pts',(-30.5,43.3445498303997,1.97467921245435));
#442=CARTESIAN_POINT('Ctrl Pts',(-30.5,43.3445498303997,-1.97467921245435));
#443=CARTESIAN_POINT('Ctrl Pts',(-30.3053233053057,43.4835614332505,-3.9946346926118));
#444=CARTESIAN_POINT('Ctrl Pts',(-29.5087600446427,44.0280117042804,-7.97513694286318));
#445=CARTESIAN_POINT('Ctrl Pts',(-28.907267827481,44.432255200559,-9.93592600016448));
#446=CARTESIAN_POINT('Ctrl Pts',(-27.3394693233737,45.413749495785,-13.6713728687613));
#447=CARTESIAN_POINT('Ctrl Pts',(-26.3718957518084,45.9904095256585,-15.4498528213314));
#448=CARTESIAN_POINT('Ctrl Pts',(-24.1516476012015,47.1942006149464,-18.7315978069922));
#449=CARTESIAN_POINT('Ctrl Pts',(-22.898556714382,47.8203070614163,-20.2349569379974));
#450=CARTESIAN_POINT('Ctrl Pts',(-20.2419710500303,49.003733977825,-22.8915426023491));
#451=CARTESIAN_POINT('Ctrl Pts',(-18.7421989615407,49.6058193896333,-24.1435197195794));
#452=CARTESIAN_POINT('Ctrl Pts',(-15.4593623879826,50.7248997409241,-26.3664119894894));
#453=CARTESIAN_POINT('Ctrl Pts',(-13.6761488862987,51.2411321011503,-27.3374909074734));
#454=CARTESIAN_POINT('Ctrl Pts',(-9.93041751490575,52.096808766401,-28.9095536615132));
#455=CARTESIAN_POINT('Ctrl Pts',(-7.96414923745887,52.4365279403789,-29.5118044438585));
#456=CARTESIAN_POINT('Ctrl Pts',(-3.98112494386343,52.8882574841974,-30.3071760283381));
#457=CARTESIAN_POINT('Ctrl Pts',(-1.96427928574767,53.,-30.5));
#458=CARTESIAN_POINT('Ctrl Pts',(1.96427928574766,53.,-30.5));
#459=CARTESIAN_POINT('Ctrl Pts',(3.98112494386342,52.8882574841974,-30.3071760283381));
#460=CARTESIAN_POINT('Ctrl Pts',(7.96414923745886,52.4365279403789,-29.5118044438585));
#461=CARTESIAN_POINT('Ctrl Pts',(9.93041751490573,52.096808766401,-28.9095536615132));
#462=CARTESIAN_POINT('Ctrl Pts',(13.6761488862987,51.2411321011503,-27.3374909074734));
#463=CARTESIAN_POINT('Ctrl Pts',(15.4593623879826,50.7248997409241,-26.3664119894894));
#464=CARTESIAN_POINT('Ctrl Pts',(18.7421989615407,49.6058193896333,-24.1435197195794));
#465=CARTESIAN_POINT('Ctrl Pts',(20.2419710500303,49.003733977825,-22.8915426023491));
#466=CARTESIAN_POINT('Ctrl Pts',(22.898556714382,47.8203070614163,-20.2349569379974));
#467=CARTESIAN_POINT('Ctrl Pts',(24.1516476012015,47.1942006149464,-18.7315978069922));
#468=CARTESIAN_POINT('Ctrl Pts',(26.3718957518084,45.9904095256585,-15.4498528213314));
#469=CARTESIAN_POINT('Ctrl Pts',(27.3394693233737,45.413749495785,-13.6713728687613));
#470=CARTESIAN_POINT('Ctrl Pts',(28.907267827481,44.432255200559,-9.93592600016448));
#471=CARTESIAN_POINT('Ctrl Pts',(29.5087600446427,44.0280117042804,-7.97513694286317));
#472=CARTESIAN_POINT('Ctrl Pts',(30.3053233053057,43.4835614332505,-3.9946346926118));
#473=CARTESIAN_POINT('Ctrl Pts',(30.5,43.3445498303997,-1.97467921245434));
#474=CARTESIAN_POINT('Ctrl Pts',(30.5,43.3445498303997,5.55111512312578E-16));
#475=CARTESIAN_POINT('Origin',(0.,0.,0.));
#476=CARTESIAN_POINT('Origin',(-1.77506243071748E-15,0.,-47.));
#477=CARTESIAN_POINT('Origin',(-1.77506243071748E-15,0.,47.));
#478=UNCERTAINTY_MEASURE_WITH_UNIT(LENGTH_MEASURE(0.01),#482,
'DISTANCE_ACCURACY_VALUE',
'Maximum model space distance between geometric entities at asserted c
onnectivities');
#479=UNCERTAINTY_MEASURE_WITH_UNIT(LENGTH_MEASURE(1.E-6),#482,
'DISTANCE_ACCURACY_VALUE',
'Maximum model space distance between geometric entities at asserted c
onnectivities');
#480=(
GEOMETRIC_REPRESENTATION_CONTEXT(3)
GLOBAL_UNCERTAINTY_ASSIGNED_CONTEXT((#478))
GLOBAL_UNIT_ASSIGNED_CONTEXT((#482,#485,#483))
REPRESENTATION_CONTEXT('','3D')
);
#481=(
GEOMETRIC_REPRESENTATION_CONTEXT(3)
GLOBAL_UNCERTAINTY_ASSIGNED_CONTEXT((#479))
GLOBAL_UNIT_ASSIGNED_CONTEXT((#482,#485,#483))
REPRESENTATION_CONTEXT('','3D')
);
#482=(
LENGTH_UNIT()
NAMED_UNIT(*)
SI_UNIT(.MILLI.,.METRE.)
);
#483=(
NAMED_UNIT(*)
SI_UNIT($,.STERADIAN.)
SOLID_ANGLE_UNIT()
);
#484=DIMENSIONAL_EXPONENTS(0.,0.,0.,0.,0.,0.,0.);
#485=(
CONVERSION_BASED_UNIT('degree',#487)
NAMED_UNIT(#484)
PLANE_ANGLE_UNIT()
);
#486=(
NAMED_UNIT(*)
PLANE_ANGLE_UNIT()
SI_UNIT($,.RADIAN.)
);
#487=PLANE_ANGLE_MEASURE_WITH_UNIT(PLANE_ANGLE_MEASURE(0.01745329252),#486);
#488=SHAPE_DEFINITION_REPRESENTATION(#489,#490);
#489=PRODUCT_DEFINITION_SHAPE('',$,#492);
#490=SHAPE_REPRESENTATION('',(#201),#480);
#491=PRODUCT_DEFINITION_CONTEXT('part definition',#496,'design');
#492=PRODUCT_DEFINITION('TR40090F','TR40090F',#493,#491);
#493=PRODUCT_DEFINITION_FORMATION('',$,#498);
#494=PRODUCT_RELATED_PRODUCT_CATEGORY('TR40090F','TR40090F',(#498));
#495=APPLICATION_PROTOCOL_DEFINITION('international standard',
'automotive_design',2009,#496);
#496=APPLICATION_CONTEXT(
'Core Data for Automotive Mechanical Design Process');
#497=PRODUCT_CONTEXT('part definition',#496,'mechanical');
#498=PRODUCT('TR40090F','TR40090F',$,(#497));
#499=PRESENTATION_STYLE_ASSIGNMENT((#500));
#500=SURFACE_STYLE_USAGE(.BOTH.,#501);
#501=SURFACE_SIDE_STYLE('',(#502));
#502=SURFACE_STYLE_FILL_AREA(#503);
#503=FILL_AREA_STYLE('',(#504));
#504=FILL_AREA_STYLE_COLOUR('',#505);
#505=COLOUR_RGB('',0.8,0.8,0.8);
ENDSEC;
END-ISO-10303-21;
