ISO-10303-21;
HEADER;
/* Generated by software containing ST-Developer
 * from STEP Tools, Inc. (www.steptools.com) 
 */

FILE_DESCRIPTION(
/* description */ (''),
/* implementation_level */ '2;1');

FILE_NAME(
/* name */ 'C:\\Users\\Gabriele\\Desktop\\catalogo\\TR40\\TR40160I.stp',

/* time_stamp */ '2016-10-17T15:15:38+02:00',
/* author */ ('Gabriele'),
/* organization */ (''),
/* preprocessor_version */ 'ST-DEVELOPER v16.5',
/* originating_system */ 'Autodesk Inventor 2017',
/* authorisation */ '');

FILE_SCHEMA (('AUTOMOTIVE_DESIGN { 1 0 10303 214 3 1 1 }'));
ENDSEC;

DATA;
#10=MECHANICAL_DESIGN_GEOMETRIC_PRESENTATION_REPRESENTATION('',(#13),#481);
#11=SHAPE_REPRESENTATION_RELATIONSHIP('SRR','None',#490,#12);
#12=ADVANCED_BREP_SHAPE_REPRESENTATION('',(#14),#480);
#13=STYLED_ITEM('',(#499),#14);
#14=MANIFOLD_SOLID_BREP('Solido1',#200);
#15=B_SPLINE_CURVE_WITH_KNOTS('',3,(#333,#334,#335,#336,#337,#338,#339,
#340,#341,#342,#343,#344,#345,#346,#347,#348,#349,#350,#351,#352,#353,#354,
#355,#356,#357,#358,#359,#360,#361,#362,#363,#364,#365,#366,#367,#368,#369,
#370,#371,#372,#373,#374,#375,#376,#377,#378,#379,#380,#381,#382,#383,#384,
#385,#386,#387,#388,#389,#390,#391,#392,#393,#394,#395,#396,#397,#398),
 .UNSPECIFIED.,.T.,.F.,(4,2,2,2,2,2,2,2,2,2,2,2,2,2,2,2,2,2,2,2,2,2,2,2,
2,2,2,2,2,2,2,2,4),(0.,0.852480257318372,1.70496051463674,2.55744077195512,
3.40992102927349,4.2585613779919,5.10720172671031,5.95584207542872,6.80448242414713,
7.65312277286554,8.50176312158396,9.35040347030237,10.1990438190208,11.0515240763391,
11.9040043336575,12.7564845909759,13.6089648482943,14.4614451056126,15.313925362931,
16.1664056202494,17.0188858775678,17.8675262262862,18.7161665750046,19.564806923723,
20.4134472724414,21.2620876211598,22.1107279698782,22.9593683185966,23.808008667315,
24.6604889246334,25.5129691819518,26.3654494392702,27.2179296965885),
 .UNSPECIFIED.);
#16=B_SPLINE_CURVE_WITH_KNOTS('',3,(#409,#410,#411,#412,#413,#414,#415,
#416,#417,#418,#419,#420,#421,#422,#423,#424,#425,#426,#427,#428,#429,#430,
#431,#432,#433,#434,#435,#436,#437,#438,#439,#440,#441,#442,#443,#444,#445,
#446,#447,#448,#449,#450,#451,#452,#453,#454,#455,#456,#457,#458,#459,#460,
#461,#462,#463,#464,#465,#466,#467,#468,#469,#470,#471,#472,#473,#474),
 .UNSPECIFIED.,.T.,.F.,(4,2,2,2,2,2,2,2,2,2,2,2,2,2,2,2,2,2,2,2,2,2,2,2,
2,2,2,2,2,2,2,2,4),(0.,1.02951178227827,2.05902356455654,3.08853534683481,
4.11804712911308,5.14210885885952,6.16617058860596,7.1902323183524,8.21429404809885,
9.23835577784529,10.2624175075917,11.2864792373382,12.3105409670846,13.3400527493629,
14.3695645316412,15.3990763139194,16.4285880961977,17.458099878476,18.4876116607542,
19.5171234430325,20.5466352253108,21.5706969550572,22.5947586848037,23.6188204145501,
24.6428821442965,25.666943874043,26.6910056037894,27.7150673335359,28.7391290632823,
29.7686408455606,30.7981526278388,31.8276644101171,32.8571761923954),
 .UNSPECIFIED.);
#17=PLANE('',#207);
#18=PLANE('',#214);
#19=PLANE('',#221);
#20=PLANE('',#228);
#21=PLANE('',#231);
#22=PLANE('',#232);
#23=CYLINDRICAL_SURFACE('',#205,80.);
#24=CYLINDRICAL_SURFACE('',#212,80.);
#25=CYLINDRICAL_SURFACE('',#219,45.);
#26=CYLINDRICAL_SURFACE('',#223,44.);
#27=CYLINDRICAL_SURFACE('',#225,79.);
#28=CYLINDRICAL_SURFACE('',#229,53.);
#29=CYLINDRICAL_SURFACE('',#230,92.);
#30=FACE_BOUND('',#65,.T.);
#31=FACE_BOUND('',#67,.T.);
#32=FACE_BOUND('',#69,.T.);
#33=FACE_BOUND('',#71,.T.);
#34=FACE_BOUND('',#73,.T.);
#35=FACE_BOUND('',#75,.T.);
#36=FACE_BOUND('',#77,.T.);
#37=FACE_BOUND('',#79,.T.);
#38=FACE_BOUND('',#81,.T.);
#39=FACE_BOUND('',#83,.T.);
#40=FACE_BOUND('',#85,.T.);
#41=FACE_BOUND('',#86,.T.);
#42=FACE_BOUND('',#88,.T.);
#43=FACE_BOUND('',#90,.T.);
#44=FACE_BOUND('',#92,.T.);
#45=FACE_BOUND('',#93,.T.);
#46=FACE_BOUND('',#95,.T.);
#47=FACE_BOUND('',#97,.T.);
#48=FACE_OUTER_BOUND('',#64,.T.);
#49=FACE_OUTER_BOUND('',#66,.T.);
#50=FACE_OUTER_BOUND('',#68,.T.);
#51=FACE_OUTER_BOUND('',#70,.T.);
#52=FACE_OUTER_BOUND('',#72,.T.);
#53=FACE_OUTER_BOUND('',#74,.T.);
#54=FACE_OUTER_BOUND('',#76,.T.);
#55=FACE_OUTER_BOUND('',#78,.T.);
#56=FACE_OUTER_BOUND('',#80,.T.);
#57=FACE_OUTER_BOUND('',#82,.T.);
#58=FACE_OUTER_BOUND('',#84,.T.);
#59=FACE_OUTER_BOUND('',#87,.T.);
#60=FACE_OUTER_BOUND('',#89,.T.);
#61=FACE_OUTER_BOUND('',#91,.T.);
#62=FACE_OUTER_BOUND('',#94,.T.);
#63=FACE_OUTER_BOUND('',#96,.T.);
#64=EDGE_LOOP('',(#147));
#65=EDGE_LOOP('',(#148));
#66=EDGE_LOOP('',(#149));
#67=EDGE_LOOP('',(#150));
#68=EDGE_LOOP('',(#151));
#69=EDGE_LOOP('',(#152));
#70=EDGE_LOOP('',(#153));
#71=EDGE_LOOP('',(#154));
#72=EDGE_LOOP('',(#155));
#73=EDGE_LOOP('',(#156));
#74=EDGE_LOOP('',(#157));
#75=EDGE_LOOP('',(#158));
#76=EDGE_LOOP('',(#159));
#77=EDGE_LOOP('',(#160));
#78=EDGE_LOOP('',(#161));
#79=EDGE_LOOP('',(#162));
#80=EDGE_LOOP('',(#163));
#81=EDGE_LOOP('',(#164));
#82=EDGE_LOOP('',(#165));
#83=EDGE_LOOP('',(#166));
#84=EDGE_LOOP('',(#167));
#85=EDGE_LOOP('',(#168));
#86=EDGE_LOOP('',(#169));
#87=EDGE_LOOP('',(#170));
#88=EDGE_LOOP('',(#171));
#89=EDGE_LOOP('',(#172));
#90=EDGE_LOOP('',(#173));
#91=EDGE_LOOP('',(#174));
#92=EDGE_LOOP('',(#175));
#93=EDGE_LOOP('',(#176));
#94=EDGE_LOOP('',(#177));
#95=EDGE_LOOP('',(#178));
#96=EDGE_LOOP('',(#179));
#97=EDGE_LOOP('',(#180));
#98=CIRCLE('',#203,80.);
#99=CIRCLE('',#204,80.5);
#100=CIRCLE('',#206,80.);
#101=CIRCLE('',#208,92.);
#102=CIRCLE('',#210,80.);
#103=CIRCLE('',#211,80.5);
#104=CIRCLE('',#213,80.);
#105=CIRCLE('',#215,92.);
#106=CIRCLE('',#217,45.);
#107=CIRCLE('',#218,45.5);
#108=CIRCLE('',#220,45.);
#109=CIRCLE('',#222,53.);
#110=CIRCLE('',#224,44.);
#111=CIRCLE('',#226,79.);
#112=CIRCLE('',#227,79.);
#113=VERTEX_POINT('',#299);
#114=VERTEX_POINT('',#301);
#115=VERTEX_POINT('',#304);
#116=VERTEX_POINT('',#307);
#117=VERTEX_POINT('',#310);
#118=VERTEX_POINT('',#312);
#119=VERTEX_POINT('',#315);
#120=VERTEX_POINT('',#318);
#121=VERTEX_POINT('',#321);
#122=VERTEX_POINT('',#323);
#123=VERTEX_POINT('',#326);
#124=VERTEX_POINT('',#329);
#125=VERTEX_POINT('',#332);
#126=VERTEX_POINT('',#399);
#127=VERTEX_POINT('',#402);
#128=VERTEX_POINT('',#404);
#129=VERTEX_POINT('',#408);
#130=EDGE_CURVE('',#113,#113,#98,.T.);
#131=EDGE_CURVE('',#114,#114,#99,.T.);
#132=EDGE_CURVE('',#115,#115,#100,.T.);
#133=EDGE_CURVE('',#116,#116,#101,.T.);
#134=EDGE_CURVE('',#117,#117,#102,.T.);
#135=EDGE_CURVE('',#118,#118,#103,.T.);
#136=EDGE_CURVE('',#119,#119,#104,.T.);
#137=EDGE_CURVE('',#120,#120,#105,.T.);
#138=EDGE_CURVE('',#121,#121,#106,.T.);
#139=EDGE_CURVE('',#122,#122,#107,.T.);
#140=EDGE_CURVE('',#123,#123,#108,.T.);
#141=EDGE_CURVE('',#124,#124,#109,.T.);
#142=EDGE_CURVE('',#125,#125,#15,.T.);
#143=EDGE_CURVE('',#126,#126,#110,.T.);
#144=EDGE_CURVE('',#127,#127,#111,.T.);
#145=EDGE_CURVE('',#128,#128,#112,.T.);
#146=EDGE_CURVE('',#129,#129,#16,.T.);
#147=ORIENTED_EDGE('',*,*,#130,.T.);
#148=ORIENTED_EDGE('',*,*,#131,.T.);
#149=ORIENTED_EDGE('',*,*,#132,.T.);
#150=ORIENTED_EDGE('',*,*,#130,.F.);
#151=ORIENTED_EDGE('',*,*,#133,.T.);
#152=ORIENTED_EDGE('',*,*,#131,.F.);
#153=ORIENTED_EDGE('',*,*,#134,.T.);
#154=ORIENTED_EDGE('',*,*,#135,.T.);
#155=ORIENTED_EDGE('',*,*,#136,.F.);
#156=ORIENTED_EDGE('',*,*,#134,.F.);
#157=ORIENTED_EDGE('',*,*,#137,.T.);
#158=ORIENTED_EDGE('',*,*,#135,.F.);
#159=ORIENTED_EDGE('',*,*,#138,.T.);
#160=ORIENTED_EDGE('',*,*,#139,.T.);
#161=ORIENTED_EDGE('',*,*,#140,.T.);
#162=ORIENTED_EDGE('',*,*,#138,.F.);
#163=ORIENTED_EDGE('',*,*,#141,.F.);
#164=ORIENTED_EDGE('',*,*,#139,.F.);
#165=ORIENTED_EDGE('',*,*,#142,.F.);
#166=ORIENTED_EDGE('',*,*,#143,.F.);
#167=ORIENTED_EDGE('',*,*,#144,.F.);
#168=ORIENTED_EDGE('',*,*,#142,.T.);
#169=ORIENTED_EDGE('',*,*,#145,.F.);
#170=ORIENTED_EDGE('',*,*,#140,.F.);
#171=ORIENTED_EDGE('',*,*,#143,.T.);
#172=ORIENTED_EDGE('',*,*,#141,.T.);
#173=ORIENTED_EDGE('',*,*,#146,.F.);
#174=ORIENTED_EDGE('',*,*,#133,.F.);
#175=ORIENTED_EDGE('',*,*,#137,.F.);
#176=ORIENTED_EDGE('',*,*,#146,.T.);
#177=ORIENTED_EDGE('',*,*,#136,.T.);
#178=ORIENTED_EDGE('',*,*,#145,.T.);
#179=ORIENTED_EDGE('',*,*,#132,.F.);
#180=ORIENTED_EDGE('',*,*,#144,.T.);
#181=TOROIDAL_SURFACE('',#202,80.5,0.5);
#182=TOROIDAL_SURFACE('',#209,80.5,0.5);
#183=TOROIDAL_SURFACE('',#216,45.5,0.5);
#184=ADVANCED_FACE('',(#48,#30),#181,.T.);
#185=ADVANCED_FACE('',(#49,#31),#23,.F.);
#186=ADVANCED_FACE('',(#50,#32),#17,.T.);
#187=ADVANCED_FACE('',(#51,#33),#182,.T.);
#188=ADVANCED_FACE('',(#52,#34),#24,.F.);
#189=ADVANCED_FACE('',(#53,#35),#18,.F.);
#190=ADVANCED_FACE('',(#54,#36),#183,.T.);
#191=ADVANCED_FACE('',(#55,#37),#25,.F.);
#192=ADVANCED_FACE('',(#56,#38),#19,.T.);
#193=ADVANCED_FACE('',(#57,#39),#26,.F.);
#194=ADVANCED_FACE('',(#58,#40,#41),#27,.F.);
#195=ADVANCED_FACE('',(#59,#42),#20,.T.);
#196=ADVANCED_FACE('',(#60,#43),#28,.T.);
#197=ADVANCED_FACE('',(#61,#44,#45),#29,.T.);
#198=ADVANCED_FACE('',(#62,#46),#21,.F.);
#199=ADVANCED_FACE('',(#63,#47),#22,.T.);
#200=CLOSED_SHELL('',(#184,#185,#186,#187,#188,#189,#190,#191,#192,#193,
#194,#195,#196,#197,#198,#199));
#201=AXIS2_PLACEMENT_3D('placement',#297,#233,#234);
#202=AXIS2_PLACEMENT_3D('',#298,#235,#236);
#203=AXIS2_PLACEMENT_3D('',#300,#237,#238);
#204=AXIS2_PLACEMENT_3D('',#302,#239,#240);
#205=AXIS2_PLACEMENT_3D('',#303,#241,#242);
#206=AXIS2_PLACEMENT_3D('',#305,#243,#244);
#207=AXIS2_PLACEMENT_3D('',#306,#245,#246);
#208=AXIS2_PLACEMENT_3D('',#308,#247,#248);
#209=AXIS2_PLACEMENT_3D('',#309,#249,#250);
#210=AXIS2_PLACEMENT_3D('',#311,#251,#252);
#211=AXIS2_PLACEMENT_3D('',#313,#253,#254);
#212=AXIS2_PLACEMENT_3D('',#314,#255,#256);
#213=AXIS2_PLACEMENT_3D('',#316,#257,#258);
#214=AXIS2_PLACEMENT_3D('',#317,#259,#260);
#215=AXIS2_PLACEMENT_3D('',#319,#261,#262);
#216=AXIS2_PLACEMENT_3D('',#320,#263,#264);
#217=AXIS2_PLACEMENT_3D('',#322,#265,#266);
#218=AXIS2_PLACEMENT_3D('',#324,#267,#268);
#219=AXIS2_PLACEMENT_3D('',#325,#269,#270);
#220=AXIS2_PLACEMENT_3D('',#327,#271,#272);
#221=AXIS2_PLACEMENT_3D('',#328,#273,#274);
#222=AXIS2_PLACEMENT_3D('',#330,#275,#276);
#223=AXIS2_PLACEMENT_3D('',#331,#277,#278);
#224=AXIS2_PLACEMENT_3D('',#400,#279,#280);
#225=AXIS2_PLACEMENT_3D('',#401,#281,#282);
#226=AXIS2_PLACEMENT_3D('',#403,#283,#284);
#227=AXIS2_PLACEMENT_3D('',#405,#285,#286);
#228=AXIS2_PLACEMENT_3D('',#406,#287,#288);
#229=AXIS2_PLACEMENT_3D('',#407,#289,#290);
#230=AXIS2_PLACEMENT_3D('',#475,#291,#292);
#231=AXIS2_PLACEMENT_3D('',#476,#293,#294);
#232=AXIS2_PLACEMENT_3D('',#477,#295,#296);
#233=DIRECTION('axis',(0.,0.,1.));
#234=DIRECTION('refdir',(1.,0.,0.));
#235=DIRECTION('center_axis',(0.,0.,-1.));
#236=DIRECTION('ref_axis',(-1.,0.,0.));
#237=DIRECTION('center_axis',(0.,0.,-1.));
#238=DIRECTION('ref_axis',(-1.,0.,0.));
#239=DIRECTION('center_axis',(0.,0.,1.));
#240=DIRECTION('ref_axis',(-1.,0.,0.));
#241=DIRECTION('center_axis',(0.,0.,-1.));
#242=DIRECTION('ref_axis',(-1.,0.,0.));
#243=DIRECTION('center_axis',(0.,0.,-1.));
#244=DIRECTION('ref_axis',(-1.,0.,0.));
#245=DIRECTION('center_axis',(0.,0.,1.));
#246=DIRECTION('ref_axis',(1.,0.,0.));
#247=DIRECTION('center_axis',(0.,0.,1.));
#248=DIRECTION('ref_axis',(-1.,0.,0.));
#249=DIRECTION('center_axis',(0.,0.,1.));
#250=DIRECTION('ref_axis',(1.,0.,0.));
#251=DIRECTION('center_axis',(0.,0.,1.));
#252=DIRECTION('ref_axis',(-1.,0.,0.));
#253=DIRECTION('center_axis',(0.,0.,-1.));
#254=DIRECTION('ref_axis',(-1.,0.,0.));
#255=DIRECTION('center_axis',(0.,0.,-1.));
#256=DIRECTION('ref_axis',(-1.,0.,0.));
#257=DIRECTION('center_axis',(0.,0.,-1.));
#258=DIRECTION('ref_axis',(-1.,0.,0.));
#259=DIRECTION('center_axis',(0.,0.,1.));
#260=DIRECTION('ref_axis',(1.,0.,0.));
#261=DIRECTION('center_axis',(0.,0.,-1.));
#262=DIRECTION('ref_axis',(-1.,0.,0.));
#263=DIRECTION('center_axis',(0.,-1.,0.));
#264=DIRECTION('ref_axis',(0.,0.,-1.));
#265=DIRECTION('center_axis',(0.,-1.,0.));
#266=DIRECTION('ref_axis',(-1.,0.,0.));
#267=DIRECTION('center_axis',(0.,1.,0.));
#268=DIRECTION('ref_axis',(-1.,0.,0.));
#269=DIRECTION('center_axis',(0.,-1.,0.));
#270=DIRECTION('ref_axis',(-1.,0.,0.));
#271=DIRECTION('center_axis',(0.,-1.,0.));
#272=DIRECTION('ref_axis',(-1.,0.,0.));
#273=DIRECTION('center_axis',(0.,1.,0.));
#274=DIRECTION('ref_axis',(0.,0.,1.));
#275=DIRECTION('center_axis',(0.,-1.,0.));
#276=DIRECTION('ref_axis',(1.,0.,0.));
#277=DIRECTION('center_axis',(0.,-1.,0.));
#278=DIRECTION('ref_axis',(-1.,0.,0.));
#279=DIRECTION('center_axis',(0.,-1.,0.));
#280=DIRECTION('ref_axis',(-1.,0.,0.));
#281=DIRECTION('center_axis',(0.,0.,1.));
#282=DIRECTION('ref_axis',(1.,0.,0.));
#283=DIRECTION('center_axis',(0.,0.,-1.));
#284=DIRECTION('ref_axis',(1.,0.,0.));
#285=DIRECTION('center_axis',(0.,0.,1.));
#286=DIRECTION('ref_axis',(1.,0.,0.));
#287=DIRECTION('center_axis',(0.,1.,0.));
#288=DIRECTION('ref_axis',(0.,0.,1.));
#289=DIRECTION('center_axis',(0.,-1.,0.));
#290=DIRECTION('ref_axis',(1.,0.,0.));
#291=DIRECTION('center_axis',(0.,0.,1.));
#292=DIRECTION('ref_axis',(-1.,0.,0.));
#293=DIRECTION('center_axis',(0.,0.,1.));
#294=DIRECTION('ref_axis',(1.,0.,0.));
#295=DIRECTION('center_axis',(0.,0.,1.));
#296=DIRECTION('ref_axis',(1.,0.,0.));
#297=CARTESIAN_POINT('',(0.,0.,0.));
#298=CARTESIAN_POINT('Origin',(0.,0.,167.5));
#299=CARTESIAN_POINT('',(80.,-9.79717439317883E-15,167.5));
#300=CARTESIAN_POINT('Origin',(0.,0.,167.5));
#301=CARTESIAN_POINT('',(80.5,9.8584067331362E-15,168.));
#302=CARTESIAN_POINT('Origin',(0.,0.,168.));
#303=CARTESIAN_POINT('Origin',(0.,0.,168.));
#304=CARTESIAN_POINT('',(80.,9.79717439317883E-15,82.));
#305=CARTESIAN_POINT('Origin',(0.,0.,82.));
#306=CARTESIAN_POINT('Origin',(-3.51332608137565E-15,0.,168.));
#307=CARTESIAN_POINT('',(92.,1.12667505521556E-14,168.));
#308=CARTESIAN_POINT('Origin',(0.,0.,168.));
#309=CARTESIAN_POINT('Origin',(0.,0.,-167.5));
#310=CARTESIAN_POINT('',(80.,9.79717439317883E-15,-167.5));
#311=CARTESIAN_POINT('Origin',(0.,0.,-167.5));
#312=CARTESIAN_POINT('',(80.5,-9.8584067331362E-15,-168.));
#313=CARTESIAN_POINT('Origin',(0.,0.,-168.));
#314=CARTESIAN_POINT('Origin',(0.,0.,-168.));
#315=CARTESIAN_POINT('',(80.,9.79717439317883E-15,-82.));
#316=CARTESIAN_POINT('Origin',(0.,0.,-82.));
#317=CARTESIAN_POINT('Origin',(-3.51332608137565E-15,0.,-168.));
#318=CARTESIAN_POINT('',(92.,1.12667505521556E-14,-168.));
#319=CARTESIAN_POINT('Origin',(0.,0.,-168.));
#320=CARTESIAN_POINT('Origin',(0.,132.5,0.));
#321=CARTESIAN_POINT('',(45.,132.5,5.51091059616309E-15));
#322=CARTESIAN_POINT('Origin',(0.,132.5,0.));
#323=CARTESIAN_POINT('',(45.5,133.,-5.57214293612046E-15));
#324=CARTESIAN_POINT('Origin',(0.,133.,0.));
#325=CARTESIAN_POINT('Origin',(0.,133.,0.));
#326=CARTESIAN_POINT('',(45.,82.,-5.51091059616309E-15));
#327=CARTESIAN_POINT('Origin',(0.,82.,0.));
#328=CARTESIAN_POINT('Origin',(5.40885669623414E-16,133.,0.));
#329=CARTESIAN_POINT('',(-53.,133.,6.49062803548097E-15));
#330=CARTESIAN_POINT('Origin',(0.,133.,0.));
#331=CARTESIAN_POINT('Origin',(0.,82.,0.));
#332=CARTESIAN_POINT('',(44.,65.612498809297,-5.55111512312578E-16));
#333=CARTESIAN_POINT('Ctrl Pts',(44.,65.612498809297,-5.55111512312578E-16));
#334=CARTESIAN_POINT('Ctrl Pts',(44.,65.612498809297,-2.84160085772791));
#335=CARTESIAN_POINT('Ctrl Pts',(43.7205072781938,65.8026260717408,-5.75140686517267));
#336=CARTESIAN_POINT('Ctrl Pts',(42.5739577929103,66.5501800869954,-11.489976434667));
#337=CARTESIAN_POINT('Ctrl Pts',(41.7074435041639,67.1060753440146,-14.3190477678971));
#338=CARTESIAN_POINT('Ctrl Pts',(39.4464682060641,68.459564160076,-19.7109774177562));
#339=CARTESIAN_POINT('Ctrl Pts',(38.0501890896979,69.2563770213954,-22.2792843599086));
#340=CARTESIAN_POINT('Ctrl Pts',(34.8450834296607,70.9230766953617,-27.0185781122963));
#341=CARTESIAN_POINT('Ctrl Pts',(33.0356964419078,71.7915004332455,-29.1897003025084));
#342=CARTESIAN_POINT('Ctrl Pts',(29.1983622471835,73.4356389997325,-33.0270344972327));
#343=CARTESIAN_POINT('Ctrl Pts',(27.0316325384868,74.2732534714069,-34.8350834041083));
#344=CARTESIAN_POINT('Ctrl Pts',(22.2908783803079,75.8310100145627,-38.0435137055053));
#345=CARTESIAN_POINT('Ctrl Pts',(19.716657249386,76.5500566923152,-39.4441362192484));
#346=CARTESIAN_POINT('Ctrl Pts',(14.3120087674366,77.7420360704559,-41.7103454137189));
#347=CARTESIAN_POINT('Ctrl Pts',(11.476235950244,78.2153200899919,-42.5777537017405));
#348=CARTESIAN_POINT('Ctrl Pts',(5.73469443061368,78.8444897769033,-43.7227901866109));
#349=CARTESIAN_POINT('Ctrl Pts',(2.8288011623947,79.,-44.));
#350=CARTESIAN_POINT('Ctrl Pts',(-2.82880116239471,79.,-44.));
#351=CARTESIAN_POINT('Ctrl Pts',(-5.73469443061368,78.8444897769033,-43.7227901866109));
#352=CARTESIAN_POINT('Ctrl Pts',(-11.476235950244,78.2153200899919,-42.5777537017405));
#353=CARTESIAN_POINT('Ctrl Pts',(-14.3120087674366,77.7420360704559,-41.7103454137189));
#354=CARTESIAN_POINT('Ctrl Pts',(-19.716657249386,76.5500566923152,-39.4441362192484));
#355=CARTESIAN_POINT('Ctrl Pts',(-22.2908783803079,75.8310100145627,-38.0435137055053));
#356=CARTESIAN_POINT('Ctrl Pts',(-27.0316325384868,74.2732534714069,-34.8350834041084));
#357=CARTESIAN_POINT('Ctrl Pts',(-29.1983622471835,73.4356389997325,-33.0270344972327));
#358=CARTESIAN_POINT('Ctrl Pts',(-33.0356964419078,71.7915004332455,-29.1897003025084));
#359=CARTESIAN_POINT('Ctrl Pts',(-34.8450834296607,70.9230766953617,-27.0185781122963));
#360=CARTESIAN_POINT('Ctrl Pts',(-38.0501890896979,69.2563770213954,-22.2792843599086));
#361=CARTESIAN_POINT('Ctrl Pts',(-39.4464682060641,68.459564160076,-19.7109774177562));
#362=CARTESIAN_POINT('Ctrl Pts',(-41.7074435041639,67.1060753440146,-14.3190477678971));
#363=CARTESIAN_POINT('Ctrl Pts',(-42.5739577929103,66.5501800869953,-11.489976434667));
#364=CARTESIAN_POINT('Ctrl Pts',(-43.7205072781938,65.8026260717408,-5.75140686517267));
#365=CARTESIAN_POINT('Ctrl Pts',(-44.,65.612498809297,-2.8416008577279));
#366=CARTESIAN_POINT('Ctrl Pts',(-44.,65.612498809297,2.8416008577279));
#367=CARTESIAN_POINT('Ctrl Pts',(-43.7205072781938,65.8026260717408,5.75140686517266));
#368=CARTESIAN_POINT('Ctrl Pts',(-42.5739577929103,66.5501800869954,11.4899764346669));
#369=CARTESIAN_POINT('Ctrl Pts',(-41.7074435041638,67.1060753440146,14.3190477678971));
#370=CARTESIAN_POINT('Ctrl Pts',(-39.4464682060641,68.459564160076,19.7109774177562));
#371=CARTESIAN_POINT('Ctrl Pts',(-38.0501890896979,69.2563770213954,22.2792843599086));
#372=CARTESIAN_POINT('Ctrl Pts',(-34.8450834296607,70.9230766953617,27.0185781122963));
#373=CARTESIAN_POINT('Ctrl Pts',(-33.0356964419078,71.7915004332455,29.1897003025084));
#374=CARTESIAN_POINT('Ctrl Pts',(-29.1983622471835,73.4356389997325,33.0270344972327));
#375=CARTESIAN_POINT('Ctrl Pts',(-27.0316325384868,74.2732534714069,34.8350834041084));
#376=CARTESIAN_POINT('Ctrl Pts',(-22.2908783803079,75.8310100145627,38.0435137055053));
#377=CARTESIAN_POINT('Ctrl Pts',(-19.716657249386,76.5500566923152,39.4441362192484));
#378=CARTESIAN_POINT('Ctrl Pts',(-14.3120087674366,77.7420360704559,41.7103454137189));
#379=CARTESIAN_POINT('Ctrl Pts',(-11.476235950244,78.2153200899919,42.5777537017405));
#380=CARTESIAN_POINT('Ctrl Pts',(-5.73469443061366,78.8444897769033,43.7227901866109));
#381=CARTESIAN_POINT('Ctrl Pts',(-2.8288011623947,79.,44.));
#382=CARTESIAN_POINT('Ctrl Pts',(2.82880116239469,79.,44.));
#383=CARTESIAN_POINT('Ctrl Pts',(5.73469443061366,78.8444897769033,43.7227901866109));
#384=CARTESIAN_POINT('Ctrl Pts',(11.476235950244,78.2153200899919,42.5777537017405));
#385=CARTESIAN_POINT('Ctrl Pts',(14.3120087674366,77.7420360704559,41.7103454137189));
#386=CARTESIAN_POINT('Ctrl Pts',(19.716657249386,76.5500566923152,39.4441362192484));
#387=CARTESIAN_POINT('Ctrl Pts',(22.2908783803079,75.8310100145627,38.0435137055053));
#388=CARTESIAN_POINT('Ctrl Pts',(27.0316325384868,74.2732534714069,34.8350834041084));
#389=CARTESIAN_POINT('Ctrl Pts',(29.1983622471835,73.4356389997325,33.0270344972327));
#390=CARTESIAN_POINT('Ctrl Pts',(33.0356964419078,71.7915004332455,29.1897003025084));
#391=CARTESIAN_POINT('Ctrl Pts',(34.8450834296607,70.9230766953617,27.0185781122963));
#392=CARTESIAN_POINT('Ctrl Pts',(38.0501890896979,69.2563770213954,22.2792843599086));
#393=CARTESIAN_POINT('Ctrl Pts',(39.4464682060641,68.459564160076,19.7109774177562));
#394=CARTESIAN_POINT('Ctrl Pts',(41.7074435041639,67.1060753440146,14.3190477678971));
#395=CARTESIAN_POINT('Ctrl Pts',(42.5739577929103,66.5501800869954,11.489976434667));
#396=CARTESIAN_POINT('Ctrl Pts',(43.7205072781938,65.8026260717408,5.75140686517268));
#397=CARTESIAN_POINT('Ctrl Pts',(44.,65.612498809297,2.84160085772791));
#398=CARTESIAN_POINT('Ctrl Pts',(44.,65.612498809297,-1.11022302462516E-15));
#399=CARTESIAN_POINT('',(44.,82.,-5.38844591624836E-15));
#400=CARTESIAN_POINT('Origin',(0.,82.,0.));
#401=CARTESIAN_POINT('Origin',(0.,0.,-82.));
#402=CARTESIAN_POINT('',(-79.,9.67470971326409E-15,82.));
#403=CARTESIAN_POINT('Origin',(0.,0.,82.));
#404=CARTESIAN_POINT('',(-79.,9.67470971326409E-15,-82.));
#405=CARTESIAN_POINT('Origin',(0.,0.,-82.));
#406=CARTESIAN_POINT('Origin',(-1.77506243071748E-15,82.,0.));
#407=CARTESIAN_POINT('Origin',(0.,133.,0.));
#408=CARTESIAN_POINT('',(53.,75.1997340420829,0.));
#409=CARTESIAN_POINT('Ctrl Pts',(53.,75.1997340420829,0.));
#410=CARTESIAN_POINT('Ctrl Pts',(53.,75.1997340420829,3.43170594092757));
#411=CARTESIAN_POINT('Ctrl Pts',(52.6616531237916,75.4417250118761,6.9419664693686));
#412=CARTESIAN_POINT('Ctrl Pts',(51.2773547792036,76.3893740295954,13.8590584126201));
#413=CARTESIAN_POINT('Ctrl Pts',(50.2320896504066,77.0929469734136,17.2663126635377));
#414=CARTESIAN_POINT('Ctrl Pts',(47.5076886743,78.8010417916315,23.7572870450413));
#415=CARTESIAN_POINT('Ctrl Pts',(45.8263502086744,79.8045341614352,26.8476514736447));
#416=CARTESIAN_POINT('Ctrl Pts',(41.968301650907,81.8992045240229,32.5501523986778));
#417=CARTESIAN_POINT('Ctrl Pts',(39.7908664664922,82.9886016099654,35.1624523392819));
#418=CARTESIAN_POINT('Ctrl Pts',(35.1747033404683,85.0475954532413,39.7786154653057));
#419=CARTESIAN_POINT('Ctrl Pts',(32.5686704238779,86.0950891335103,41.9541034959871));
#420=CARTESIAN_POINT('Ctrl Pts',(26.8642684055073,88.0419999144652,45.816767424282));
#421=CARTESIAN_POINT('Ctrl Pts',(23.7656396252694,88.9400917544427,47.5042276795074));
#422=CARTESIAN_POINT('Ctrl Pts',(17.2567030417154,90.428711001534,50.2360782444697));
#423=CARTESIAN_POINT('Ctrl Pts',(13.839875505364,91.0197179251949,51.2826703931915));
#424=CARTESIAN_POINT('Ctrl Pts',(6.91837151568777,91.805595367612,52.6648893694744));
#425=CARTESIAN_POINT('Ctrl Pts',(3.41353909915481,92.,53.));
#426=CARTESIAN_POINT('Ctrl Pts',(-3.41353909915481,92.,53.));
#427=CARTESIAN_POINT('Ctrl Pts',(-6.91837151568777,91.805595367612,52.6648893694744));
#428=CARTESIAN_POINT('Ctrl Pts',(-13.839875505364,91.0197179251949,51.2826703931915));
#429=CARTESIAN_POINT('Ctrl Pts',(-17.2567030417154,90.428711001534,50.2360782444697));
#430=CARTESIAN_POINT('Ctrl Pts',(-23.7656396252694,88.9400917544427,47.5042276795074));
#431=CARTESIAN_POINT('Ctrl Pts',(-26.8642684055073,88.0419999144652,45.816767424282));
#432=CARTESIAN_POINT('Ctrl Pts',(-32.5686704238779,86.0950891335103,41.9541034959871));
#433=CARTESIAN_POINT('Ctrl Pts',(-35.1747033404683,85.0475954532413,39.7786154653057));
#434=CARTESIAN_POINT('Ctrl Pts',(-39.7908664664922,82.9886016099654,35.1624523392819));
#435=CARTESIAN_POINT('Ctrl Pts',(-41.968301650907,81.8992045240229,32.5501523986778));
#436=CARTESIAN_POINT('Ctrl Pts',(-45.8263502086744,79.8045341614352,26.8476514736447));
#437=CARTESIAN_POINT('Ctrl Pts',(-47.5076886743,78.8010417916315,23.7572870450413));
#438=CARTESIAN_POINT('Ctrl Pts',(-50.2320896504066,77.0929469734136,17.2663126635377));
#439=CARTESIAN_POINT('Ctrl Pts',(-51.2773547792036,76.3893740295954,13.8590584126201));
#440=CARTESIAN_POINT('Ctrl Pts',(-52.6616531237916,75.4417250118761,6.9419664693686));
#441=CARTESIAN_POINT('Ctrl Pts',(-53.,75.1997340420829,3.43170594092757));
#442=CARTESIAN_POINT('Ctrl Pts',(-53.,75.1997340420829,-3.43170594092757));
#443=CARTESIAN_POINT('Ctrl Pts',(-52.6616531237915,75.4417250118761,-6.9419664693686));
#444=CARTESIAN_POINT('Ctrl Pts',(-51.2773547792036,76.3893740295954,-13.8590584126201));
#445=CARTESIAN_POINT('Ctrl Pts',(-50.2320896504066,77.0929469734136,-17.2663126635377));
#446=CARTESIAN_POINT('Ctrl Pts',(-47.5076886743,78.8010417916315,-23.7572870450413));
#447=CARTESIAN_POINT('Ctrl Pts',(-45.8263502086744,79.8045341614352,-26.8476514736447));
#448=CARTESIAN_POINT('Ctrl Pts',(-41.968301650907,81.8992045240229,-32.5501523986779));
#449=CARTESIAN_POINT('Ctrl Pts',(-39.7908664664922,82.9886016099654,-35.1624523392819));
#450=CARTESIAN_POINT('Ctrl Pts',(-35.1747033404684,85.0475954532413,-39.7786154653057));
#451=CARTESIAN_POINT('Ctrl Pts',(-32.5686704238779,86.0950891335103,-41.9541034959871));
#452=CARTESIAN_POINT('Ctrl Pts',(-26.8642684055074,88.0419999144652,-45.816767424282));
#453=CARTESIAN_POINT('Ctrl Pts',(-23.7656396252695,88.9400917544427,-47.5042276795073));
#454=CARTESIAN_POINT('Ctrl Pts',(-17.2567030417154,90.428711001534,-50.2360782444697));
#455=CARTESIAN_POINT('Ctrl Pts',(-13.839875505364,91.0197179251949,-51.2826703931915));
#456=CARTESIAN_POINT('Ctrl Pts',(-6.91837151568778,91.805595367612,-52.6648893694744));
#457=CARTESIAN_POINT('Ctrl Pts',(-3.41353909915482,92.,-53.));
#458=CARTESIAN_POINT('Ctrl Pts',(3.4135390991548,92.,-53.));
#459=CARTESIAN_POINT('Ctrl Pts',(6.91837151568776,91.805595367612,-52.6648893694744));
#460=CARTESIAN_POINT('Ctrl Pts',(13.839875505364,91.0197179251949,-51.2826703931915));
#461=CARTESIAN_POINT('Ctrl Pts',(17.2567030417154,90.428711001534,-50.2360782444697));
#462=CARTESIAN_POINT('Ctrl Pts',(23.7656396252694,88.9400917544427,-47.5042276795074));
#463=CARTESIAN_POINT('Ctrl Pts',(26.8642684055073,88.0419999144652,-45.8167674242821));
#464=CARTESIAN_POINT('Ctrl Pts',(32.5686704238779,86.0950891335103,-41.9541034959872));
#465=CARTESIAN_POINT('Ctrl Pts',(35.1747033404683,85.0475954532413,-39.7786154653057));
#466=CARTESIAN_POINT('Ctrl Pts',(39.7908664664922,82.9886016099654,-35.1624523392819));
#467=CARTESIAN_POINT('Ctrl Pts',(41.968301650907,81.8992045240229,-32.5501523986779));
#468=CARTESIAN_POINT('Ctrl Pts',(45.8263502086744,79.8045341614352,-26.8476514736447));
#469=CARTESIAN_POINT('Ctrl Pts',(47.5076886743,78.8010417916315,-23.7572870450413));
#470=CARTESIAN_POINT('Ctrl Pts',(50.2320896504066,77.0929469734136,-17.2663126635377));
#471=CARTESIAN_POINT('Ctrl Pts',(51.2773547792036,76.3893740295954,-13.8590584126201));
#472=CARTESIAN_POINT('Ctrl Pts',(52.6616531237916,75.4417250118761,-6.94196646936859));
#473=CARTESIAN_POINT('Ctrl Pts',(53.,75.1997340420829,-3.43170594092757));
#474=CARTESIAN_POINT('Ctrl Pts',(53.,75.1997340420829,-1.11022302462516E-15));
#475=CARTESIAN_POINT('Origin',(0.,0.,0.));
#476=CARTESIAN_POINT('Origin',(-3.77702593176532E-15,0.,-82.));
#477=CARTESIAN_POINT('Origin',(-3.77702593176532E-15,0.,82.));
#478=UNCERTAINTY_MEASURE_WITH_UNIT(LENGTH_MEASURE(0.01),#482,
'DISTANCE_ACCURACY_VALUE',
'Maximum model space distance between geometric entities at asserted c
onnectivities');
#479=UNCERTAINTY_MEASURE_WITH_UNIT(LENGTH_MEASURE(1.E-6),#482,
'DISTANCE_ACCURACY_VALUE',
'Maximum model space distance between geometric entities at asserted c
onnectivities');
#480=(
GEOMETRIC_REPRESENTATION_CONTEXT(3)
GLOBAL_UNCERTAINTY_ASSIGNED_CONTEXT((#478))
GLOBAL_UNIT_ASSIGNED_CONTEXT((#482,#485,#483))
REPRESENTATION_CONTEXT('','3D')
);
#481=(
GEOMETRIC_REPRESENTATION_CONTEXT(3)
GLOBAL_UNCERTAINTY_ASSIGNED_CONTEXT((#479))
GLOBAL_UNIT_ASSIGNED_CONTEXT((#482,#485,#483))
REPRESENTATION_CONTEXT('','3D')
);
#482=(
LENGTH_UNIT()
NAMED_UNIT(*)
SI_UNIT(.MILLI.,.METRE.)
);
#483=(
NAMED_UNIT(*)
SI_UNIT($,.STERADIAN.)
SOLID_ANGLE_UNIT()
);
#484=DIMENSIONAL_EXPONENTS(0.,0.,0.,0.,0.,0.,0.);
#485=(
CONVERSION_BASED_UNIT('degree',#487)
NAMED_UNIT(#484)
PLANE_ANGLE_UNIT()
);
#486=(
NAMED_UNIT(*)
PLANE_ANGLE_UNIT()
SI_UNIT($,.RADIAN.)
);
#487=PLANE_ANGLE_MEASURE_WITH_UNIT(PLANE_ANGLE_MEASURE(0.01745329252),#486);
#488=SHAPE_DEFINITION_REPRESENTATION(#489,#490);
#489=PRODUCT_DEFINITION_SHAPE('',$,#492);
#490=SHAPE_REPRESENTATION('',(#201),#480);
#491=PRODUCT_DEFINITION_CONTEXT('part definition',#496,'design');
#492=PRODUCT_DEFINITION('TR40160I','TR40160I',#493,#491);
#493=PRODUCT_DEFINITION_FORMATION('',$,#498);
#494=PRODUCT_RELATED_PRODUCT_CATEGORY('TR40160I','TR40160I',(#498));
#495=APPLICATION_PROTOCOL_DEFINITION('international standard',
'automotive_design',2009,#496);
#496=APPLICATION_CONTEXT(
'Core Data for Automotive Mechanical Design Process');
#497=PRODUCT_CONTEXT('part definition',#496,'mechanical');
#498=PRODUCT('TR40160I','TR40160I',$,(#497));
#499=PRESENTATION_STYLE_ASSIGNMENT((#500));
#500=SURFACE_STYLE_USAGE(.BOTH.,#501);
#501=SURFACE_SIDE_STYLE('',(#502));
#502=SURFACE_STYLE_FILL_AREA(#503);
#503=FILL_AREA_STYLE('',(#504));
#504=FILL_AREA_STYLE_COLOUR('',#505);
#505=COLOUR_RGB('',0.8,0.8,0.8);
ENDSEC;
END-ISO-10303-21;
