ISO-10303-21;
HEADER;
/****************************************************************
 * Generated by software with PDElib inside                    *
 * PDElib Version v51a, created Wed 07/06/2011                  *
 * ITI Transcendata (http://www.transcendata.com/)              *
 ****************************************************************/
FILE_DESCRIPTION((''),'2;1');
FILE_NAME('X:\\AKTUELL Drawings mit SAP Materialnummer im Namen\\SATs und Steps und Dxfs\\MPR\\Halteklammer\\Steps\\151100.stp','2013-02-27T14:51:29',('DMK009'),(''),'Autodesk Inventor 2012','Autodesk Inventor 2012','');
FILE_SCHEMA(('AUTOMOTIVE_DESIGN { 1 0 10303 214 1 1 1 1 }'));
ENDSEC;
DATA;
#5=APPLICATION_CONTEXT('automotive design');
#6=APPLICATION_PROTOCOL_DEFINITION('International Standard','automotive_design',2001,#5);
#7=PRODUCT_CONTEXT('',#5,'mechanical');
#8=PRODUCT('151100','151100',$,(#7));
#9=PRODUCT_RELATED_PRODUCT_CATEGORY('part',$,(#8));
#10=PRODUCT_DEFINITION_FORMATION('',$,#8);
#11=PRODUCT_DEFINITION_CONTEXT('part definition',#5,'design');
#12=PRODUCT_DEFINITION('',$,#10,#11);
#18=(NAMED_UNIT(*)PLANE_ANGLE_UNIT()SI_UNIT($,.RADIAN.));
#19=DIMENSIONAL_EXPONENTS(0.0,0.0,0.0,0.0,0.0,0.0,0.0);
#20=PLANE_ANGLE_MEASURE_WITH_UNIT(PLANE_ANGLE_MEASURE(0.0174532925),#18);
#24=(CONVERSION_BASED_UNIT('DEGREE',#20)NAMED_UNIT(#19)PLANE_ANGLE_UNIT());
#28=(NAMED_UNIT(*)SI_UNIT($,.STERADIAN.)SOLID_ANGLE_UNIT());
#32=(LENGTH_UNIT()NAMED_UNIT(*)SI_UNIT(.MILLI.,.METRE.));
#34=UNCERTAINTY_MEASURE_WITH_UNIT(LENGTH_MEASURE(0.01),#32,'DISTANCE_ACCURACY_VALUE','');
#36=(GEOMETRIC_REPRESENTATION_CONTEXT(3)GLOBAL_UNCERTAINTY_ASSIGNED_CONTEXT((#34))GLOBAL_UNIT_ASSIGNED_CONTEXT((#24,#28,#32))REPRESENTATION_CONTEXT('None','None'));
#37=AXIS2_PLACEMENT_3D('',#38,#39,#40);
#38=CARTESIAN_POINT('',(0.0,0.0,0.0));
#39=DIRECTION('',(0.0,0.0,1.0));
#40=DIRECTION('',(1.0,0.0,0.0));
#41=SHAPE_REPRESENTATION('',(#37),#36);
#42=PRODUCT_DEFINITION_SHAPE('','',#12);
#43=SHAPE_DEFINITION_REPRESENTATION(#42,#41);
#49=(NAMED_UNIT(*)PLANE_ANGLE_UNIT()SI_UNIT($,.RADIAN.));
#50=DIMENSIONAL_EXPONENTS(0.0,0.0,0.0,0.0,0.0,0.0,0.0);
#51=PLANE_ANGLE_MEASURE_WITH_UNIT(PLANE_ANGLE_MEASURE(0.0174532925),#49);
#55=(CONVERSION_BASED_UNIT('DEGREE',#51)NAMED_UNIT(#50)PLANE_ANGLE_UNIT());
#59=(NAMED_UNIT(*)SI_UNIT($,.STERADIAN.)SOLID_ANGLE_UNIT());
#63=(LENGTH_UNIT()NAMED_UNIT(*)SI_UNIT(.MILLI.,.METRE.));
#65=UNCERTAINTY_MEASURE_WITH_UNIT(LENGTH_MEASURE(0.000001),#63,'DISTANCE_ACCURACY_VALUE','');
#67=(GEOMETRIC_REPRESENTATION_CONTEXT(3)GLOBAL_UNCERTAINTY_ASSIGNED_CONTEXT((#65))GLOBAL_UNIT_ASSIGNED_CONTEXT((#55,#59,#63))REPRESENTATION_CONTEXT('','3D'));
#68=CARTESIAN_POINT('',(-4.440892E-015,5.000000000000018,0.0));
#69=DIRECTION('',(6.661338E-016,-1.0,-2.079069E-018));
#70=DIRECTION('',(-1.0,0.0,0.0));
#71=AXIS2_PLACEMENT_3D('',#68,#69,#70);
#72=CYLINDRICAL_SURFACE('',#71,8.5);
#73=CARTESIAN_POINT('',(8.5,2.331468E-014,-1.051345E-015));
#74=VERTEX_POINT('',#73);
#75=CARTESIAN_POINT('',(-1.110223E-015,1.776357E-014,-1.039535E-017));
#76=DIRECTION('',(0.0,1.0,0.0));
#77=DIRECTION('',(-1.0,0.0,0.0));
#78=AXIS2_PLACEMENT_3D('',#75,#76,#77);
#79=CIRCLE('',#78,8.5);
#80=EDGE_CURVE('',#74,#74,#79,.T.);
#81=ORIENTED_EDGE('',*,*,#80,.F.);
#82=EDGE_LOOP('',(#81));
#83=FACE_OUTER_BOUND('',#82,.T.);
#84=CARTESIAN_POINT('',(8.499999999999996,5.000000000000023,-1.040950E-015));
#85=VERTEX_POINT('',#84);
#86=CARTESIAN_POINT('',(-4.440892E-015,5.000000000000018,1.845229E-047));
#87=DIRECTION('',(0.0,-1.0,0.0));
#88=DIRECTION('',(-1.0,0.0,0.0));
#89=AXIS2_PLACEMENT_3D('',#86,#87,#88);
#90=CIRCLE('',#89,8.5);
#91=EDGE_CURVE('',#85,#85,#90,.T.);
#92=ORIENTED_EDGE('',*,*,#91,.F.);
#93=EDGE_LOOP('',(#92));
#94=FACE_BOUND('',#93,.T.);
#95=ADVANCED_FACE('',(#83,#94),#72,.F.);
#96=CARTESIAN_POINT('',(21.000000000000011,-0.99999999999997,-20.0));
#97=DIRECTION('',(0.0,0.0,-1.0));
#98=DIRECTION('',(1.0,0.0,0.0));
#99=AXIS2_PLACEMENT_3D('',#96,#97,#98);
#100=PLANE('',#99);
#101=CARTESIAN_POINT('',(21.000000000000011,-0.99999999999997,-20.0));
#102=VERTEX_POINT('',#101);
#103=CARTESIAN_POINT('',(26.000000000000011,-0.999999999999961,-20.0));
#104=VERTEX_POINT('',#103);
#105=CARTESIAN_POINT('',(21.000000000000011,-0.999999999999964,-20.0));
#106=DIRECTION('',(1.0,0.0,0.0));
#107=VECTOR('',#106,5.0);
#108=LINE('',#105,#107);
#109=EDGE_CURVE('',#102,#104,#108,.T.);
#110=ORIENTED_EDGE('',*,*,#109,.T.);
#111=CARTESIAN_POINT('',(26.000000000000028,-9.999999999999947,-20.0));
#112=VERTEX_POINT('',#111);
#113=CARTESIAN_POINT('',(26.000000000000011,-0.999999999999961,-20.0));
#114=DIRECTION('',(0.0,-1.0,0.0));
#115=VECTOR('',#114,8.999999999999984);
#116=LINE('',#113,#115);
#117=EDGE_CURVE('',#104,#112,#116,.T.);
#118=ORIENTED_EDGE('',*,*,#117,.T.);
#119=CARTESIAN_POINT('',(21.000000000000032,-9.999999999999965,-20.0));
#120=VERTEX_POINT('',#119);
#121=CARTESIAN_POINT('',(21.000000000000032,-9.999999999999965,-20.0));
#122=DIRECTION('',(1.0,0.0,0.0));
#123=VECTOR('',#122,4.999999999999996);
#124=LINE('',#121,#123);
#125=EDGE_CURVE('',#120,#112,#124,.T.);
#126=ORIENTED_EDGE('',*,*,#125,.F.);
#127=CARTESIAN_POINT('',(21.000000000000014,-0.999999999999964,-20.0));
#128=DIRECTION('',(0.0,-1.0,0.0));
#129=VECTOR('',#128,8.999999999999993);
#130=LINE('',#127,#129);
#131=EDGE_CURVE('',#102,#120,#130,.T.);
#132=ORIENTED_EDGE('',*,*,#131,.F.);
#133=EDGE_LOOP('',(#110,#118,#126,#132));
#134=FACE_OUTER_BOUND('',#133,.T.);
#135=ADVANCED_FACE('',(#134),#100,.T.);
#136=CARTESIAN_POINT('',(20.000000000000004,-0.999999999999974,0.0));
#137=DIRECTION('',(0.0,0.0,-1.0));
#138=DIRECTION('',(0.0,1.0,0.0));
#139=AXIS2_PLACEMENT_3D('',#136,#137,#138);
#140=CYLINDRICAL_SURFACE('',#139,1.000000000000003);
#141=CARTESIAN_POINT('',(21.000000000000011,-0.99999999999997,20.0));
#142=VERTEX_POINT('',#141);
#143=CARTESIAN_POINT('',(21.000000000000007,-0.99999999999997,20.0));
#144=DIRECTION('',(0.0,0.0,-1.0));
#145=VECTOR('',#144,40.0);
#146=LINE('',#143,#145);
#147=EDGE_CURVE('',#142,#102,#146,.T.);
#148=ORIENTED_EDGE('',*,*,#147,.F.);
#149=CARTESIAN_POINT('',(20.000000000000004,3.108624E-014,20.0));
#150=VERTEX_POINT('',#149);
#151=CARTESIAN_POINT('',(20.000000000000004,-0.999999999999974,20.0));
#152=DIRECTION('',(0.0,0.0,-1.0));
#153=DIRECTION('',(0.0,1.0,0.0));
#154=AXIS2_PLACEMENT_3D('',#151,#152,#153);
#155=CIRCLE('',#154,1.000000000000005);
#156=EDGE_CURVE('',#150,#142,#155,.T.);
#157=ORIENTED_EDGE('',*,*,#156,.F.);
#158=CARTESIAN_POINT('',(20.000000000000004,3.108624E-014,-20.0));
#159=VERTEX_POINT('',#158);
#160=CARTESIAN_POINT('',(20.000000000000004,2.668693E-014,20.0));
#161=DIRECTION('',(0.0,0.0,-1.0));
#162=VECTOR('',#161,40.0);
#163=LINE('',#160,#162);
#164=EDGE_CURVE('',#150,#159,#163,.T.);
#165=ORIENTED_EDGE('',*,*,#164,.T.);
#166=CARTESIAN_POINT('',(20.000000000000004,-0.999999999999974,-20.0));
#167=DIRECTION('',(0.0,0.0,-1.0));
#168=DIRECTION('',(0.0,1.0,0.0));
#169=AXIS2_PLACEMENT_3D('',#166,#167,#168);
#170=CIRCLE('',#169,1.000000000000005);
#171=EDGE_CURVE('',#159,#102,#170,.T.);
#172=ORIENTED_EDGE('',*,*,#171,.T.);
#173=EDGE_LOOP('',(#148,#157,#165,#172));
#174=FACE_OUTER_BOUND('',#173,.T.);
#175=ADVANCED_FACE('',(#174),#140,.F.);
#176=CARTESIAN_POINT('',(25.999999999999947,24.026548245743733,2.775558E-016));
#177=DIRECTION('',(-1.0,0.0,0.0));
#178=DIRECTION('',(0.0,0.0,-1.0));
#179=AXIS2_PLACEMENT_3D('',#176,#177,#178);
#180=PLANE('',#179);
#181=CARTESIAN_POINT('',(26.000000000000011,-0.999999999999961,20.0));
#182=VERTEX_POINT('',#181);
#183=CARTESIAN_POINT('',(26.000000000000007,-0.999999999999952,-20.0));
#184=DIRECTION('',(0.0,0.0,1.0));
#185=VECTOR('',#184,40.0);
#186=LINE('',#183,#185);
#187=EDGE_CURVE('',#104,#182,#186,.T.);
#188=ORIENTED_EDGE('',*,*,#187,.T.);
#189=CARTESIAN_POINT('',(26.000000000000028,-9.999999999999947,20.0));
#190=VERTEX_POINT('',#189);
#191=CARTESIAN_POINT('',(26.000000000000036,-9.999999999999943,20.0));
#192=DIRECTION('',(0.0,1.0,0.0));
#193=VECTOR('',#192,8.999999999999986);
#194=LINE('',#191,#193);
#195=EDGE_CURVE('',#190,#182,#194,.T.);
#196=ORIENTED_EDGE('',*,*,#195,.F.);
#197=CARTESIAN_POINT('',(26.000000000000032,-9.999999999999947,-20.0));
#198=DIRECTION('',(0.0,0.0,1.0));
#199=VECTOR('',#198,40.0);
#200=LINE('',#197,#199);
#201=EDGE_CURVE('',#112,#190,#200,.T.);
#202=ORIENTED_EDGE('',*,*,#201,.F.);
#203=ORIENTED_EDGE('',*,*,#117,.F.);
#204=EDGE_LOOP('',(#188,#196,#202,#203));
#205=FACE_OUTER_BOUND('',#204,.T.);
#206=ADVANCED_FACE('',(#205),#180,.F.);
#207=CARTESIAN_POINT('',(26.000000000000011,-0.99999999999997,20.0));
#208=DIRECTION('',(0.0,0.0,1.0));
#209=DIRECTION('',(1.0,0.0,0.0));
#210=AXIS2_PLACEMENT_3D('',#207,#208,#209);
#211=PLANE('',#210);
#212=CARTESIAN_POINT('',(26.000000000000011,-0.999999999999951,20.0));
#213=DIRECTION('',(-1.0,0.0,0.0));
#214=VECTOR('',#213,5.0);
#215=LINE('',#212,#214);
#216=EDGE_CURVE('',#182,#142,#215,.T.);
#217=ORIENTED_EDGE('',*,*,#216,.F.);
#218=CARTESIAN_POINT('',(20.000000000000004,5.000000000000031,20.0));
#219=VERTEX_POINT('',#218);
#220=CARTESIAN_POINT('',(20.000000000000004,-0.999999999999974,20.0));
#221=DIRECTION('',(0.0,0.0,1.0));
#222=DIRECTION('',(1.0,0.0,0.0));
#223=AXIS2_PLACEMENT_3D('',#220,#221,#222);
#224=CIRCLE('',#223,6.000000000000005);
#225=EDGE_CURVE('',#182,#219,#224,.T.);
#226=ORIENTED_EDGE('',*,*,#225,.T.);
#227=CARTESIAN_POINT('',(20.0,5.000000000000031,20.0));
#228=DIRECTION('',(0.0,-1.0,0.0));
#229=VECTOR('',#228,5.0);
#230=LINE('',#227,#229);
#231=EDGE_CURVE('',#219,#150,#230,.T.);
#232=ORIENTED_EDGE('',*,*,#231,.T.);
#233=ORIENTED_EDGE('',*,*,#156,.T.);
#234=EDGE_LOOP('',(#217,#226,#232,#233));
#235=FACE_OUTER_BOUND('',#234,.T.);
#236=ADVANCED_FACE('',(#235),#211,.T.);
#237=CARTESIAN_POINT('',(20.99999999999989,49.053096491487373,20.0));
#238=DIRECTION('',(0.0,0.0,1.0));
#239=DIRECTION('',(-1.0,0.0,0.0));
#240=AXIS2_PLACEMENT_3D('',#237,#238,#239);
#241=PLANE('',#240);
#242=ORIENTED_EDGE('',*,*,#216,.T.);
#243=CARTESIAN_POINT('',(21.000000000000032,-9.999999999999965,20.0));
#244=VERTEX_POINT('',#243);
#245=CARTESIAN_POINT('',(21.000000000000014,-0.999999999999964,20.0));
#246=DIRECTION('',(0.0,-1.0,0.0));
#247=VECTOR('',#246,8.999999999999993);
#248=LINE('',#245,#247);
#249=EDGE_CURVE('',#142,#244,#248,.T.);
#250=ORIENTED_EDGE('',*,*,#249,.T.);
#251=CARTESIAN_POINT('',(21.000000000000032,-9.999999999999965,20.0));
#252=DIRECTION('',(1.0,0.0,0.0));
#253=VECTOR('',#252,4.999999999999996);
#254=LINE('',#251,#253);
#255=EDGE_CURVE('',#244,#190,#254,.T.);
#256=ORIENTED_EDGE('',*,*,#255,.T.);
#257=ORIENTED_EDGE('',*,*,#195,.T.);
#258=EDGE_LOOP('',(#242,#250,#256,#257));
#259=FACE_OUTER_BOUND('',#258,.T.);
#260=ADVANCED_FACE('',(#259),#241,.T.);
#261=CARTESIAN_POINT('',(-1.776357E-014,5.000000000000018,2.775558E-016));
#262=DIRECTION('',(0.0,-1.0,0.0));
#263=DIRECTION('',(0.0,0.0,-1.0));
#264=AXIS2_PLACEMENT_3D('',#261,#262,#263);
#265=PLANE('',#264);
#266=CARTESIAN_POINT('',(20.000000000000004,5.000000000000031,-20.0));
#267=VERTEX_POINT('',#266);
#268=CARTESIAN_POINT('',(20.000000000000004,5.000000000000027,-20.0));
#269=DIRECTION('',(0.0,0.0,1.0));
#270=VECTOR('',#269,40.0);
#271=LINE('',#268,#270);
#272=EDGE_CURVE('',#267,#219,#271,.T.);
#273=ORIENTED_EDGE('',*,*,#272,.F.);
#274=CARTESIAN_POINT('',(-20.000000000000004,5.000000000000009,-20.0));
#275=VERTEX_POINT('',#274);
#276=CARTESIAN_POINT('',(-20.0,5.000000000000008,-20.0));
#277=DIRECTION('',(1.0,0.0,0.0));
#278=VECTOR('',#277,40.000000000000007);
#279=LINE('',#276,#278);
#280=EDGE_CURVE('',#275,#267,#279,.T.);
#281=ORIENTED_EDGE('',*,*,#280,.F.);
#282=CARTESIAN_POINT('',(-20.0,5.000000000000009,20.0));
#283=VERTEX_POINT('',#282);
#284=CARTESIAN_POINT('',(-20.0,5.000000000000009,-20.0));
#285=DIRECTION('',(0.0,0.0,1.0));
#286=VECTOR('',#285,40.0);
#287=LINE('',#284,#286);
#288=EDGE_CURVE('',#275,#283,#287,.T.);
#289=ORIENTED_EDGE('',*,*,#288,.T.);
#290=CARTESIAN_POINT('',(20.0,5.000000000000033,20.0));
#291=DIRECTION('',(-1.0,0.0,0.0));
#292=VECTOR('',#291,40.0);
#293=LINE('',#290,#292);
#294=EDGE_CURVE('',#219,#283,#293,.T.);
#295=ORIENTED_EDGE('',*,*,#294,.F.);
#296=EDGE_LOOP('',(#273,#281,#289,#295));
#297=FACE_OUTER_BOUND('',#296,.T.);
#298=ORIENTED_EDGE('',*,*,#91,.T.);
#299=EDGE_LOOP('',(#298));
#300=FACE_BOUND('',#299,.T.);
#301=ADVANCED_FACE('',(#297,#300),#265,.F.);
#302=CARTESIAN_POINT('',(20.999999999999947,24.026548245743715,-2.775558E-016));
#303=DIRECTION('',(-1.0,0.0,0.0));
#304=DIRECTION('',(0.0,0.0,-1.0));
#305=AXIS2_PLACEMENT_3D('',#302,#303,#304);
#306=PLANE('',#305);
#307=ORIENTED_EDGE('',*,*,#147,.T.);
#308=ORIENTED_EDGE('',*,*,#131,.T.);
#309=CARTESIAN_POINT('',(21.000000000000032,-9.999999999999965,-20.0));
#310=DIRECTION('',(0.0,0.0,1.0));
#311=VECTOR('',#310,40.0);
#312=LINE('',#309,#311);
#313=EDGE_CURVE('',#120,#244,#312,.T.);
#314=ORIENTED_EDGE('',*,*,#313,.T.);
#315=ORIENTED_EDGE('',*,*,#249,.F.);
#316=EDGE_LOOP('',(#307,#308,#314,#315));
#317=FACE_OUTER_BOUND('',#316,.T.);
#318=ADVANCED_FACE('',(#317),#306,.T.);
#319=CARTESIAN_POINT('',(25.026548245743673,3.552714E-014,-20.0));
#320=DIRECTION('',(0.0,0.0,-1.0));
#321=DIRECTION('',(0.0,1.0,0.0));
#322=AXIS2_PLACEMENT_3D('',#319,#320,#321);
#323=PLANE('',#322);
#324=CARTESIAN_POINT('',(20.000000000000014,3.108624E-014,-20.0));
#325=DIRECTION('',(0.0,1.0,0.0));
#326=VECTOR('',#325,5.0);
#327=LINE('',#324,#326);
#328=EDGE_CURVE('',#159,#267,#327,.T.);
#329=ORIENTED_EDGE('',*,*,#328,.F.);
#330=CARTESIAN_POINT('',(-20.0,8.881784E-015,-20.0));
#331=VERTEX_POINT('',#330);
#332=CARTESIAN_POINT('',(-20.0,8.472148E-015,-20.0));
#333=DIRECTION('',(1.0,0.0,0.0));
#334=VECTOR('',#333,40.000000000000007);
#335=LINE('',#332,#334);
#336=EDGE_CURVE('',#331,#159,#335,.T.);
#337=ORIENTED_EDGE('',*,*,#336,.F.);
#338=CARTESIAN_POINT('',(-20.000000000000004,8.881784E-015,-20.0));
#339=DIRECTION('',(0.0,1.0,0.0));
#340=VECTOR('',#339,5.0);
#341=LINE('',#338,#340);
#342=EDGE_CURVE('',#331,#275,#341,.T.);
#343=ORIENTED_EDGE('',*,*,#342,.T.);
#344=ORIENTED_EDGE('',*,*,#280,.T.);
#345=EDGE_LOOP('',(#329,#337,#343,#344));
#346=FACE_OUTER_BOUND('',#345,.T.);
#347=ADVANCED_FACE('',(#346),#323,.T.);
#348=CARTESIAN_POINT('',(21.000000000000011,-0.999999999999972,-20.0));
#349=DIRECTION('',(0.0,0.0,-1.0));
#350=DIRECTION('',(-1.0,0.0,0.0));
#351=AXIS2_PLACEMENT_3D('',#348,#349,#350);
#352=PLANE('',#351);
#353=ORIENTED_EDGE('',*,*,#109,.F.);
#354=ORIENTED_EDGE('',*,*,#171,.F.);
#355=ORIENTED_EDGE('',*,*,#328,.T.);
#356=CARTESIAN_POINT('',(20.000000000000004,-0.999999999999974,-20.0));
#357=DIRECTION('',(0.0,0.0,-1.0));
#358=DIRECTION('',(0.0,1.0,0.0));
#359=AXIS2_PLACEMENT_3D('',#356,#357,#358);
#360=CIRCLE('',#359,6.000000000000005);
#361=EDGE_CURVE('',#267,#104,#360,.T.);
#362=ORIENTED_EDGE('',*,*,#361,.T.);
#363=EDGE_LOOP('',(#353,#354,#355,#362));
#364=FACE_OUTER_BOUND('',#363,.T.);
#365=ADVANCED_FACE('',(#364),#352,.T.);
#366=CARTESIAN_POINT('',(-20.0,-0.999999999999995,0.0));
#367=DIRECTION('',(0.0,0.0,-1.0));
#368=DIRECTION('',(-1.0,0.0,0.0));
#369=AXIS2_PLACEMENT_3D('',#366,#367,#368);
#370=CYLINDRICAL_SURFACE('',#369,1.000000000000004);
#371=CARTESIAN_POINT('',(-20.0,8.881784E-015,20.0));
#372=VERTEX_POINT('',#371);
#373=CARTESIAN_POINT('',(-20.0,8.923366E-015,20.0));
#374=DIRECTION('',(0.0,0.0,-1.0));
#375=VECTOR('',#374,40.0);
#376=LINE('',#373,#375);
#377=EDGE_CURVE('',#372,#331,#376,.T.);
#378=ORIENTED_EDGE('',*,*,#377,.F.);
#379=CARTESIAN_POINT('',(-21.000000000000007,-0.999999999999996,20.0));
#380=VERTEX_POINT('',#379);
#381=CARTESIAN_POINT('',(-20.0,-0.999999999999995,20.0));
#382=DIRECTION('',(0.0,0.0,-1.0));
#383=DIRECTION('',(-1.0,0.0,0.0));
#384=AXIS2_PLACEMENT_3D('',#381,#382,#383);
#385=CIRCLE('',#384,1.000000000000005);
#386=EDGE_CURVE('',#380,#372,#385,.T.);
#387=ORIENTED_EDGE('',*,*,#386,.F.);
#388=CARTESIAN_POINT('',(-21.000000000000007,-0.999999999999996,-20.0));
#389=VERTEX_POINT('',#388);
#390=CARTESIAN_POINT('',(-21.000000000000007,-0.999999999999995,20.0));
#391=DIRECTION('',(0.0,0.0,-1.0));
#392=VECTOR('',#391,40.0);
#393=LINE('',#390,#392);
#394=EDGE_CURVE('',#380,#389,#393,.T.);
#395=ORIENTED_EDGE('',*,*,#394,.T.);
#396=CARTESIAN_POINT('',(-20.0,-0.999999999999995,-20.0));
#397=DIRECTION('',(0.0,0.0,-1.0));
#398=DIRECTION('',(-1.0,0.0,0.0));
#399=AXIS2_PLACEMENT_3D('',#396,#397,#398);
#400=CIRCLE('',#399,1.000000000000005);
#401=EDGE_CURVE('',#389,#331,#400,.T.);
#402=ORIENTED_EDGE('',*,*,#401,.T.);
#403=EDGE_LOOP('',(#378,#387,#395,#402));
#404=FACE_OUTER_BOUND('',#403,.T.);
#405=ADVANCED_FACE('',(#404),#370,.F.);
#406=CARTESIAN_POINT('',(20.000000000000004,-0.999999999999974,0.0));
#407=DIRECTION('',(0.0,0.0,-1.0));
#408=DIRECTION('',(0.0,1.0,0.0));
#409=AXIS2_PLACEMENT_3D('',#406,#407,#408);
#410=CYLINDRICAL_SURFACE('',#409,6.000000000000004);
#411=ORIENTED_EDGE('',*,*,#187,.F.);
#412=ORIENTED_EDGE('',*,*,#361,.F.);
#413=ORIENTED_EDGE('',*,*,#272,.T.);
#414=ORIENTED_EDGE('',*,*,#225,.F.);
#415=EDGE_LOOP('',(#411,#412,#413,#414));
#416=FACE_OUTER_BOUND('',#415,.T.);
#417=ADVANCED_FACE('',(#416),#410,.T.);
#418=CARTESIAN_POINT('',(-20.000000000000004,5.00000000000001,20.0));
#419=DIRECTION('',(0.0,0.0,1.0));
#420=DIRECTION('',(1.0,0.0,0.0));
#421=AXIS2_PLACEMENT_3D('',#418,#419,#420);
#422=PLANE('',#421);
#423=CARTESIAN_POINT('',(-20.000000000000004,5.000000000000009,20.0));
#424=DIRECTION('',(0.0,-1.0,0.0));
#425=VECTOR('',#424,5.0);
#426=LINE('',#423,#425);
#427=EDGE_CURVE('',#283,#372,#426,.T.);
#428=ORIENTED_EDGE('',*,*,#427,.F.);
#429=CARTESIAN_POINT('',(-26.000000000000007,-1.000000000000001,20.0));
#430=VERTEX_POINT('',#429);
#431=CARTESIAN_POINT('',(-20.0,-0.999999999999995,20.0));
#432=DIRECTION('',(0.0,0.0,1.0));
#433=DIRECTION('',(0.0,1.0,0.0));
#434=AXIS2_PLACEMENT_3D('',#431,#432,#433);
#435=CIRCLE('',#434,6.000000000000005);
#436=EDGE_CURVE('',#283,#430,#435,.T.);
#437=ORIENTED_EDGE('',*,*,#436,.T.);
#438=CARTESIAN_POINT('',(-26.000000000000007,-1.000000000000001,20.0));
#439=DIRECTION('',(1.0,0.0,0.0));
#440=VECTOR('',#439,5.0);
#441=LINE('',#438,#440);
#442=EDGE_CURVE('',#430,#380,#441,.T.);
#443=ORIENTED_EDGE('',*,*,#442,.T.);
#444=ORIENTED_EDGE('',*,*,#386,.T.);
#445=EDGE_LOOP('',(#428,#437,#443,#444));
#446=FACE_OUTER_BOUND('',#445,.T.);
#447=ADVANCED_FACE('',(#446),#422,.T.);
#448=CARTESIAN_POINT('',(-26.000000000000028,24.026548245743658,2.775558E-016));
#449=DIRECTION('',(1.0,0.0,0.0));
#450=DIRECTION('',(0.0,0.0,-1.0));
#451=AXIS2_PLACEMENT_3D('',#448,#449,#450);
#452=PLANE('',#451);
#453=CARTESIAN_POINT('',(-26.000000000000007,-0.999999999999996,-20.0));
#454=VERTEX_POINT('',#453);
#455=CARTESIAN_POINT('',(-26.000000000000007,-1.0,-20.0));
#456=DIRECTION('',(0.0,0.0,1.0));
#457=VECTOR('',#456,40.0);
#458=LINE('',#455,#457);
#459=EDGE_CURVE('',#454,#430,#458,.T.);
#460=ORIENTED_EDGE('',*,*,#459,.F.);
#461=CARTESIAN_POINT('',(-25.999999999999996,-10.000000000000007,-20.0));
#462=VERTEX_POINT('',#461);
#463=CARTESIAN_POINT('',(-25.999999999999996,-10.0,-20.0));
#464=DIRECTION('',(0.0,1.0,0.0));
#465=VECTOR('',#464,9.000000000000007);
#466=LINE('',#463,#465);
#467=EDGE_CURVE('',#462,#454,#466,.T.);
#468=ORIENTED_EDGE('',*,*,#467,.F.);
#469=CARTESIAN_POINT('',(-25.999999999999996,-10.000000000000007,20.0));
#470=VERTEX_POINT('',#469);
#471=CARTESIAN_POINT('',(-25.999999999999996,-10.000000000000007,20.0));
#472=DIRECTION('',(0.0,0.0,-1.0));
#473=VECTOR('',#472,40.0);
#474=LINE('',#471,#473);
#475=EDGE_CURVE('',#470,#462,#474,.T.);
#476=ORIENTED_EDGE('',*,*,#475,.F.);
#477=CARTESIAN_POINT('',(-26.000000000000007,-1.000000000000002,20.0));
#478=DIRECTION('',(0.0,-1.0,0.0));
#479=VECTOR('',#478,9.000000000000005);
#480=LINE('',#477,#479);
#481=EDGE_CURVE('',#430,#470,#480,.T.);
#482=ORIENTED_EDGE('',*,*,#481,.F.);
#483=EDGE_LOOP('',(#460,#468,#476,#482));
#484=FACE_OUTER_BOUND('',#483,.T.);
#485=ADVANCED_FACE('',(#484),#452,.F.);
#486=CARTESIAN_POINT('',(-25.026548245743673,4.440892E-015,20.0));
#487=DIRECTION('',(0.0,0.0,1.0));
#488=DIRECTION('',(0.0,-1.0,0.0));
#489=AXIS2_PLACEMENT_3D('',#486,#487,#488);
#490=PLANE('',#489);
#491=ORIENTED_EDGE('',*,*,#231,.F.);
#492=ORIENTED_EDGE('',*,*,#294,.T.);
#493=ORIENTED_EDGE('',*,*,#427,.T.);
#494=CARTESIAN_POINT('',(-20.0,8.472148E-015,20.0));
#495=DIRECTION('',(1.0,0.0,0.0));
#496=VECTOR('',#495,40.000000000000007);
#497=LINE('',#494,#496);
#498=EDGE_CURVE('',#372,#150,#497,.T.);
#499=ORIENTED_EDGE('',*,*,#498,.T.);
#500=EDGE_LOOP('',(#491,#492,#493,#499));
#501=FACE_OUTER_BOUND('',#500,.T.);
#502=ADVANCED_FACE('',(#501),#490,.T.);
#503=CARTESIAN_POINT('',(-8.881784E-015,1.776357E-014,-2.775558E-016));
#504=DIRECTION('',(0.0,-1.0,0.0));
#505=DIRECTION('',(0.0,0.0,-1.0));
#506=AXIS2_PLACEMENT_3D('',#503,#504,#505);
#507=PLANE('',#506);
#508=ORIENTED_EDGE('',*,*,#164,.F.);
#509=ORIENTED_EDGE('',*,*,#498,.F.);
#510=ORIENTED_EDGE('',*,*,#377,.T.);
#511=ORIENTED_EDGE('',*,*,#336,.T.);
#512=EDGE_LOOP('',(#508,#509,#510,#511));
#513=FACE_OUTER_BOUND('',#512,.T.);
#514=ORIENTED_EDGE('',*,*,#80,.T.);
#515=EDGE_LOOP('',(#514));
#516=FACE_BOUND('',#515,.T.);
#517=ADVANCED_FACE('',(#513,#516),#507,.T.);
#518=CARTESIAN_POINT('',(-21.000000000000053,49.053096491487345,-20.0));
#519=DIRECTION('',(0.0,0.0,-1.0));
#520=DIRECTION('',(-1.0,0.0,0.0));
#521=AXIS2_PLACEMENT_3D('',#518,#519,#520);
#522=PLANE('',#521);
#523=CARTESIAN_POINT('',(-21.000000000000007,-0.999999999999995,-20.0));
#524=DIRECTION('',(-1.0,0.0,0.0));
#525=VECTOR('',#524,5.0);
#526=LINE('',#523,#525);
#527=EDGE_CURVE('',#389,#454,#526,.T.);
#528=ORIENTED_EDGE('',*,*,#527,.F.);
#529=CARTESIAN_POINT('',(-20.999999999999996,-9.999999999999998,-20.0));
#530=VERTEX_POINT('',#529);
#531=CARTESIAN_POINT('',(-20.999999999999996,-9.999999999999998,-20.0));
#532=DIRECTION('',(0.0,1.0,0.0));
#533=VECTOR('',#532,9.000000000000002);
#534=LINE('',#531,#533);
#535=EDGE_CURVE('',#530,#389,#534,.T.);
#536=ORIENTED_EDGE('',*,*,#535,.F.);
#537=CARTESIAN_POINT('',(-20.999999999999996,-9.999999999999998,-20.0));
#538=DIRECTION('',(-1.0,0.0,0.0));
#539=VECTOR('',#538,5.0);
#540=LINE('',#537,#539);
#541=EDGE_CURVE('',#530,#462,#540,.T.);
#542=ORIENTED_EDGE('',*,*,#541,.T.);
#543=ORIENTED_EDGE('',*,*,#467,.T.);
#544=EDGE_LOOP('',(#528,#536,#542,#543));
#545=FACE_OUTER_BOUND('',#544,.T.);
#546=ADVANCED_FACE('',(#545),#522,.T.);
#547=CARTESIAN_POINT('',(-21.000000000000007,-0.999999999999995,20.0));
#548=DIRECTION('',(0.0,0.0,1.0));
#549=DIRECTION('',(1.0,0.0,0.0));
#550=AXIS2_PLACEMENT_3D('',#547,#548,#549);
#551=PLANE('',#550);
#552=ORIENTED_EDGE('',*,*,#442,.F.);
#553=ORIENTED_EDGE('',*,*,#481,.T.);
#554=CARTESIAN_POINT('',(-20.999999999999996,-9.999999999999998,20.0));
#555=VERTEX_POINT('',#554);
#556=CARTESIAN_POINT('',(-20.999999999999996,-9.999999999999998,20.0));
#557=DIRECTION('',(-1.0,0.0,0.0));
#558=VECTOR('',#557,5.0);
#559=LINE('',#556,#558);
#560=EDGE_CURVE('',#555,#470,#559,.T.);
#561=ORIENTED_EDGE('',*,*,#560,.F.);
#562=CARTESIAN_POINT('',(-20.999999999999996,-9.999999999999998,20.0));
#563=DIRECTION('',(0.0,1.0,0.0));
#564=VECTOR('',#563,9.000000000000002);
#565=LINE('',#562,#564);
#566=EDGE_CURVE('',#555,#380,#565,.T.);
#567=ORIENTED_EDGE('',*,*,#566,.T.);
#568=EDGE_LOOP('',(#552,#553,#561,#567));
#569=FACE_OUTER_BOUND('',#568,.T.);
#570=ADVANCED_FACE('',(#569),#551,.T.);
#571=CARTESIAN_POINT('',(-20.999999999999996,-9.999999999999998,20.0));
#572=DIRECTION('',(0.0,-1.0,0.0));
#573=DIRECTION('',(0.0,0.0,-1.0));
#574=AXIS2_PLACEMENT_3D('',#571,#572,#573);
#575=PLANE('',#574);
#576=ORIENTED_EDGE('',*,*,#475,.T.);
#577=ORIENTED_EDGE('',*,*,#541,.F.);
#578=CARTESIAN_POINT('',(-20.999999999999996,-9.999999999999998,-20.0));
#579=DIRECTION('',(0.0,0.0,1.0));
#580=VECTOR('',#579,40.0);
#581=LINE('',#578,#580);
#582=EDGE_CURVE('',#530,#555,#581,.T.);
#583=ORIENTED_EDGE('',*,*,#582,.T.);
#584=ORIENTED_EDGE('',*,*,#560,.T.);
#585=EDGE_LOOP('',(#576,#577,#583,#584));
#586=FACE_OUTER_BOUND('',#585,.T.);
#587=ADVANCED_FACE('',(#586),#575,.T.);
#588=CARTESIAN_POINT('',(-20.0,1.026956E-014,-20.0));
#589=DIRECTION('',(0.0,0.0,-1.0));
#590=DIRECTION('',(-1.0,0.0,0.0));
#591=AXIS2_PLACEMENT_3D('',#588,#589,#590);
#592=PLANE('',#591);
#593=ORIENTED_EDGE('',*,*,#342,.F.);
#594=ORIENTED_EDGE('',*,*,#401,.F.);
#595=ORIENTED_EDGE('',*,*,#527,.T.);
#596=CARTESIAN_POINT('',(-20.0,-0.999999999999995,-20.0));
#597=DIRECTION('',(0.0,0.0,-1.0));
#598=DIRECTION('',(-1.0,0.0,0.0));
#599=AXIS2_PLACEMENT_3D('',#596,#597,#598);
#600=CIRCLE('',#599,6.000000000000005);
#601=EDGE_CURVE('',#454,#275,#600,.T.);
#602=ORIENTED_EDGE('',*,*,#601,.T.);
#603=EDGE_LOOP('',(#593,#594,#595,#602));
#604=FACE_OUTER_BOUND('',#603,.T.);
#605=ADVANCED_FACE('',(#604),#592,.T.);
#606=CARTESIAN_POINT('',(21.000000000000032,-9.999999999999965,-20.0));
#607=DIRECTION('',(0.0,-1.0,0.0));
#608=DIRECTION('',(0.0,0.0,1.0));
#609=AXIS2_PLACEMENT_3D('',#606,#607,#608);
#610=PLANE('',#609);
#611=ORIENTED_EDGE('',*,*,#201,.T.);
#612=ORIENTED_EDGE('',*,*,#255,.F.);
#613=ORIENTED_EDGE('',*,*,#313,.F.);
#614=ORIENTED_EDGE('',*,*,#125,.T.);
#615=EDGE_LOOP('',(#611,#612,#613,#614));
#616=FACE_OUTER_BOUND('',#615,.T.);
#617=ADVANCED_FACE('',(#616),#610,.T.);
#618=CARTESIAN_POINT('',(-20.0,-0.999999999999995,0.0));
#619=DIRECTION('',(0.0,0.0,-1.0));
#620=DIRECTION('',(-1.0,0.0,0.0));
#621=AXIS2_PLACEMENT_3D('',#618,#619,#620);
#622=CYLINDRICAL_SURFACE('',#621,6.000000000000004);
#623=ORIENTED_EDGE('',*,*,#288,.F.);
#624=ORIENTED_EDGE('',*,*,#601,.F.);
#625=ORIENTED_EDGE('',*,*,#459,.T.);
#626=ORIENTED_EDGE('',*,*,#436,.F.);
#627=EDGE_LOOP('',(#623,#624,#625,#626));
#628=FACE_OUTER_BOUND('',#627,.T.);
#629=ADVANCED_FACE('',(#628),#622,.T.);
#630=CARTESIAN_POINT('',(-21.000000000000028,24.026548245743665,-2.775558E-016));
#631=DIRECTION('',(1.0,0.0,0.0));
#632=DIRECTION('',(0.0,0.0,-1.0));
#633=AXIS2_PLACEMENT_3D('',#630,#631,#632);
#634=PLANE('',#633);
#635=ORIENTED_EDGE('',*,*,#394,.F.);
#636=ORIENTED_EDGE('',*,*,#566,.F.);
#637=ORIENTED_EDGE('',*,*,#582,.F.);
#638=ORIENTED_EDGE('',*,*,#535,.T.);
#639=EDGE_LOOP('',(#635,#636,#637,#638));
#640=FACE_OUTER_BOUND('',#639,.T.);
#641=ADVANCED_FACE('',(#640),#634,.T.);
#642=CLOSED_SHELL('',(#95,#135,#175,#206,#236,#260,#301,#318,#347,#365,#405,#417,#447,#485,#502,#517,#546,#570,#587,#605,#617,#629,#641));
#643=MANIFOLD_SOLID_BREP('Volumenk\S\vrper1',#642);
#644=COLOUR_RGB('',0.639216005802155,0.639216005802155,0.686275005340576);
#645=FILL_AREA_STYLE_COLOUR('',#644);
#646=FILL_AREA_STYLE('',(#645));
#647=SURFACE_STYLE_FILL_AREA(#646);
#648=SURFACE_SIDE_STYLE('',(#647));
#649=SURFACE_STYLE_USAGE(.BOTH.,#648);
#650=PRESENTATION_STYLE_ASSIGNMENT((#649));
#651=STYLED_ITEM('',(#650),#95);
#652=STYLED_ITEM('',(#650),#135);
#653=STYLED_ITEM('',(#650),#175);
#654=STYLED_ITEM('',(#650),#206);
#655=STYLED_ITEM('',(#650),#236);
#656=STYLED_ITEM('',(#650),#260);
#657=STYLED_ITEM('',(#650),#301);
#658=STYLED_ITEM('',(#650),#318);
#659=STYLED_ITEM('',(#650),#347);
#660=STYLED_ITEM('',(#650),#365);
#661=STYLED_ITEM('',(#650),#405);
#662=STYLED_ITEM('',(#650),#417);
#663=STYLED_ITEM('',(#650),#447);
#664=STYLED_ITEM('',(#650),#485);
#665=STYLED_ITEM('',(#650),#502);
#666=STYLED_ITEM('',(#650),#517);
#667=STYLED_ITEM('',(#650),#546);
#668=STYLED_ITEM('',(#650),#570);
#669=STYLED_ITEM('',(#650),#587);
#670=STYLED_ITEM('',(#650),#605);
#671=STYLED_ITEM('',(#650),#617);
#672=STYLED_ITEM('',(#650),#629);
#673=STYLED_ITEM('',(#650),#641);
#674=MECHANICAL_DESIGN_GEOMETRIC_PRESENTATION_REPRESENTATION('',(#651,#652,#653,#654,#655,#656,#657,#658,#659,#660,#661,#662,#663,#664,#665,#666,#667,#668,#669,#670,#671,#672,#673,#682),#67);
#675=COLOUR_RGB('Standard',0.752941012382507,0.752941012382507,0.752941012382507);
#676=FILL_AREA_STYLE_COLOUR('Standard',#675);
#677=FILL_AREA_STYLE('Standard',(#676));
#678=SURFACE_STYLE_FILL_AREA(#677);
#679=SURFACE_SIDE_STYLE('Standard',(#678));
#680=SURFACE_STYLE_USAGE(.BOTH.,#679);
#681=PRESENTATION_STYLE_ASSIGNMENT((#680));
#682=STYLED_ITEM('',(#681),#643);
#683=ADVANCED_BREP_SHAPE_REPRESENTATION('ABSR',(#643),#36);
#684=SHAPE_REPRESENTATION_RELATIONSHIP('SRR','None',#683,#41);
ENDSEC;
END-ISO-10303-21;
