ISO-10303-21;
HEADER;
/* Generated by software containing ST-Developer
 * from STEP Tools, Inc. (www.steptools.com) 
 */

FILE_DESCRIPTION(
/* description */ (''),
/* implementation_level */ '2;1');

FILE_NAME(
/* name */ 'C:\\Users\\Gabriele\\Desktop\\catalogo\\TR40\\TR40040B.stp',

/* time_stamp */ '2016-10-17T15:32:12+02:00',
/* author */ ('Gabriele'),
/* organization */ (''),
/* preprocessor_version */ 'ST-DEVELOPER v16.5',
/* originating_system */ 'Autodesk Inventor 2017',
/* authorisation */ '');

FILE_SCHEMA (('AUTOMOTIVE_DESIGN { 1 0 10303 214 3 1 1 }'));
ENDSEC;

DATA;
#10=MECHANICAL_DESIGN_GEOMETRIC_PRESENTATION_REPRESENTATION('',(#13),#433);
#11=SHAPE_REPRESENTATION_RELATIONSHIP('SRR','None',#442,#12);
#12=ADVANCED_BREP_SHAPE_REPRESENTATION('',(#14),#432);
#13=STYLED_ITEM('',(#451),#14);
#14=MANIFOLD_SOLID_BREP('Solido1',#200);
#15=B_SPLINE_CURVE_WITH_KNOTS('',3,(#333,#334,#335,#336,#337,#338,#339,
#340,#341,#342,#343,#344,#345,#346,#347,#348,#349,#350,#351,#352,#353,#354,
#355,#356,#357,#358,#359,#360,#361,#362,#363,#364,#365,#366),
 .UNSPECIFIED.,.T.,.F.,(4,2,2,2,2,2,2,2,2,2,2,2,2,2,2,2,4),(0.,0.35534531010056,
0.71069062020112,1.06522727177102,1.41976392334091,1.77430057491081,2.1288372264807,
2.48418253658126,2.83952784668182,3.19487315678238,3.55021846688294,3.90475511845284,
4.25929177002273,4.61382842159263,4.96836507316252,5.32371038326308,5.67905569336364),
 .UNSPECIFIED.);
#16=B_SPLINE_CURVE_WITH_KNOTS('',3,(#377,#378,#379,#380,#381,#382,#383,
#384,#385,#386,#387,#388,#389,#390,#391,#392,#393,#394,#395,#396,#397,#398,
#399,#400,#401,#402,#403,#404,#405,#406,#407,#408,#409,#410,#411,#412,#413,
#414,#415,#416,#417,#418,#419,#420,#421,#422,#423,#424,#425,#426),
 .UNSPECIFIED.,.T.,.F.,(4,2,2,2,2,2,2,2,2,2,2,2,2,2,2,2,2,2,2,2,2,2,2,2,
4),(0.,0.270967389901354,0.541934779802708,1.08386955960542,1.62352375245941,
1.89335084888641,2.16317794531341,2.43300504174041,2.70283213816741,3.24248633102141,
3.78442111082412,4.05538850072547,4.32635589062682,4.59732328052818,4.86829067042953,
5.41022545023224,5.94987964308624,6.21970673951324,6.48953383594023,6.75936093236723,
7.02918802879423,7.56884222164823,8.11077700145094,8.38174439135229,8.65271178125365),
 .UNSPECIFIED.);
#17=PLANE('',#207);
#18=PLANE('',#214);
#19=PLANE('',#221);
#20=PLANE('',#228);
#21=PLANE('',#231);
#22=PLANE('',#232);
#23=CYLINDRICAL_SURFACE('',#205,20.);
#24=CYLINDRICAL_SURFACE('',#212,20.);
#25=CYLINDRICAL_SURFACE('',#219,10.);
#26=CYLINDRICAL_SURFACE('',#223,9.25);
#27=CYLINDRICAL_SURFACE('',#225,19.25);
#28=CYLINDRICAL_SURFACE('',#229,14.);
#29=CYLINDRICAL_SURFACE('',#230,25.5);
#30=FACE_BOUND('',#65,.T.);
#31=FACE_BOUND('',#67,.T.);
#32=FACE_BOUND('',#69,.T.);
#33=FACE_BOUND('',#71,.T.);
#34=FACE_BOUND('',#73,.T.);
#35=FACE_BOUND('',#75,.T.);
#36=FACE_BOUND('',#77,.T.);
#37=FACE_BOUND('',#79,.T.);
#38=FACE_BOUND('',#81,.T.);
#39=FACE_BOUND('',#83,.T.);
#40=FACE_BOUND('',#85,.T.);
#41=FACE_BOUND('',#86,.T.);
#42=FACE_BOUND('',#88,.T.);
#43=FACE_BOUND('',#90,.T.);
#44=FACE_BOUND('',#92,.T.);
#45=FACE_BOUND('',#93,.T.);
#46=FACE_BOUND('',#95,.T.);
#47=FACE_BOUND('',#97,.T.);
#48=FACE_OUTER_BOUND('',#64,.T.);
#49=FACE_OUTER_BOUND('',#66,.T.);
#50=FACE_OUTER_BOUND('',#68,.T.);
#51=FACE_OUTER_BOUND('',#70,.T.);
#52=FACE_OUTER_BOUND('',#72,.T.);
#53=FACE_OUTER_BOUND('',#74,.T.);
#54=FACE_OUTER_BOUND('',#76,.T.);
#55=FACE_OUTER_BOUND('',#78,.T.);
#56=FACE_OUTER_BOUND('',#80,.T.);
#57=FACE_OUTER_BOUND('',#82,.T.);
#58=FACE_OUTER_BOUND('',#84,.T.);
#59=FACE_OUTER_BOUND('',#87,.T.);
#60=FACE_OUTER_BOUND('',#89,.T.);
#61=FACE_OUTER_BOUND('',#91,.T.);
#62=FACE_OUTER_BOUND('',#94,.T.);
#63=FACE_OUTER_BOUND('',#96,.T.);
#64=EDGE_LOOP('',(#147));
#65=EDGE_LOOP('',(#148));
#66=EDGE_LOOP('',(#149));
#67=EDGE_LOOP('',(#150));
#68=EDGE_LOOP('',(#151));
#69=EDGE_LOOP('',(#152));
#70=EDGE_LOOP('',(#153));
#71=EDGE_LOOP('',(#154));
#72=EDGE_LOOP('',(#155));
#73=EDGE_LOOP('',(#156));
#74=EDGE_LOOP('',(#157));
#75=EDGE_LOOP('',(#158));
#76=EDGE_LOOP('',(#159));
#77=EDGE_LOOP('',(#160));
#78=EDGE_LOOP('',(#161));
#79=EDGE_LOOP('',(#162));
#80=EDGE_LOOP('',(#163));
#81=EDGE_LOOP('',(#164));
#82=EDGE_LOOP('',(#165));
#83=EDGE_LOOP('',(#166));
#84=EDGE_LOOP('',(#167));
#85=EDGE_LOOP('',(#168));
#86=EDGE_LOOP('',(#169));
#87=EDGE_LOOP('',(#170));
#88=EDGE_LOOP('',(#171));
#89=EDGE_LOOP('',(#172));
#90=EDGE_LOOP('',(#173));
#91=EDGE_LOOP('',(#174));
#92=EDGE_LOOP('',(#175));
#93=EDGE_LOOP('',(#176));
#94=EDGE_LOOP('',(#177));
#95=EDGE_LOOP('',(#178));
#96=EDGE_LOOP('',(#179));
#97=EDGE_LOOP('',(#180));
#98=CIRCLE('',#203,20.);
#99=CIRCLE('',#204,20.5);
#100=CIRCLE('',#206,20.);
#101=CIRCLE('',#208,25.5);
#102=CIRCLE('',#210,20.);
#103=CIRCLE('',#211,20.5);
#104=CIRCLE('',#213,20.);
#105=CIRCLE('',#215,25.5);
#106=CIRCLE('',#217,10.);
#107=CIRCLE('',#218,10.5);
#108=CIRCLE('',#220,10.);
#109=CIRCLE('',#222,14.);
#110=CIRCLE('',#224,9.25);
#111=CIRCLE('',#226,19.25);
#112=CIRCLE('',#227,19.25);
#113=VERTEX_POINT('',#299);
#114=VERTEX_POINT('',#301);
#115=VERTEX_POINT('',#304);
#116=VERTEX_POINT('',#307);
#117=VERTEX_POINT('',#310);
#118=VERTEX_POINT('',#312);
#119=VERTEX_POINT('',#315);
#120=VERTEX_POINT('',#318);
#121=VERTEX_POINT('',#321);
#122=VERTEX_POINT('',#323);
#123=VERTEX_POINT('',#326);
#124=VERTEX_POINT('',#329);
#125=VERTEX_POINT('',#332);
#126=VERTEX_POINT('',#367);
#127=VERTEX_POINT('',#370);
#128=VERTEX_POINT('',#372);
#129=VERTEX_POINT('',#376);
#130=EDGE_CURVE('',#113,#113,#98,.T.);
#131=EDGE_CURVE('',#114,#114,#99,.T.);
#132=EDGE_CURVE('',#115,#115,#100,.T.);
#133=EDGE_CURVE('',#116,#116,#101,.T.);
#134=EDGE_CURVE('',#117,#117,#102,.T.);
#135=EDGE_CURVE('',#118,#118,#103,.T.);
#136=EDGE_CURVE('',#119,#119,#104,.T.);
#137=EDGE_CURVE('',#120,#120,#105,.T.);
#138=EDGE_CURVE('',#121,#121,#106,.T.);
#139=EDGE_CURVE('',#122,#122,#107,.T.);
#140=EDGE_CURVE('',#123,#123,#108,.T.);
#141=EDGE_CURVE('',#124,#124,#109,.T.);
#142=EDGE_CURVE('',#125,#125,#15,.T.);
#143=EDGE_CURVE('',#126,#126,#110,.T.);
#144=EDGE_CURVE('',#127,#127,#111,.T.);
#145=EDGE_CURVE('',#128,#128,#112,.T.);
#146=EDGE_CURVE('',#129,#129,#16,.T.);
#147=ORIENTED_EDGE('',*,*,#130,.T.);
#148=ORIENTED_EDGE('',*,*,#131,.T.);
#149=ORIENTED_EDGE('',*,*,#132,.T.);
#150=ORIENTED_EDGE('',*,*,#130,.F.);
#151=ORIENTED_EDGE('',*,*,#133,.T.);
#152=ORIENTED_EDGE('',*,*,#131,.F.);
#153=ORIENTED_EDGE('',*,*,#134,.T.);
#154=ORIENTED_EDGE('',*,*,#135,.T.);
#155=ORIENTED_EDGE('',*,*,#136,.F.);
#156=ORIENTED_EDGE('',*,*,#134,.F.);
#157=ORIENTED_EDGE('',*,*,#137,.T.);
#158=ORIENTED_EDGE('',*,*,#135,.F.);
#159=ORIENTED_EDGE('',*,*,#138,.T.);
#160=ORIENTED_EDGE('',*,*,#139,.T.);
#161=ORIENTED_EDGE('',*,*,#140,.T.);
#162=ORIENTED_EDGE('',*,*,#138,.F.);
#163=ORIENTED_EDGE('',*,*,#141,.F.);
#164=ORIENTED_EDGE('',*,*,#139,.F.);
#165=ORIENTED_EDGE('',*,*,#142,.F.);
#166=ORIENTED_EDGE('',*,*,#143,.F.);
#167=ORIENTED_EDGE('',*,*,#144,.F.);
#168=ORIENTED_EDGE('',*,*,#142,.T.);
#169=ORIENTED_EDGE('',*,*,#145,.F.);
#170=ORIENTED_EDGE('',*,*,#140,.F.);
#171=ORIENTED_EDGE('',*,*,#143,.T.);
#172=ORIENTED_EDGE('',*,*,#141,.T.);
#173=ORIENTED_EDGE('',*,*,#146,.F.);
#174=ORIENTED_EDGE('',*,*,#133,.F.);
#175=ORIENTED_EDGE('',*,*,#137,.F.);
#176=ORIENTED_EDGE('',*,*,#146,.T.);
#177=ORIENTED_EDGE('',*,*,#136,.T.);
#178=ORIENTED_EDGE('',*,*,#145,.T.);
#179=ORIENTED_EDGE('',*,*,#132,.F.);
#180=ORIENTED_EDGE('',*,*,#144,.T.);
#181=TOROIDAL_SURFACE('',#202,20.5,0.5);
#182=TOROIDAL_SURFACE('',#209,20.5,0.5);
#183=TOROIDAL_SURFACE('',#216,10.5,0.5);
#184=ADVANCED_FACE('',(#48,#30),#181,.T.);
#185=ADVANCED_FACE('',(#49,#31),#23,.F.);
#186=ADVANCED_FACE('',(#50,#32),#17,.T.);
#187=ADVANCED_FACE('',(#51,#33),#182,.T.);
#188=ADVANCED_FACE('',(#52,#34),#24,.F.);
#189=ADVANCED_FACE('',(#53,#35),#18,.F.);
#190=ADVANCED_FACE('',(#54,#36),#183,.T.);
#191=ADVANCED_FACE('',(#55,#37),#25,.F.);
#192=ADVANCED_FACE('',(#56,#38),#19,.T.);
#193=ADVANCED_FACE('',(#57,#39),#26,.F.);
#194=ADVANCED_FACE('',(#58,#40,#41),#27,.F.);
#195=ADVANCED_FACE('',(#59,#42),#20,.T.);
#196=ADVANCED_FACE('',(#60,#43),#28,.T.);
#197=ADVANCED_FACE('',(#61,#44,#45),#29,.T.);
#198=ADVANCED_FACE('',(#62,#46),#21,.F.);
#199=ADVANCED_FACE('',(#63,#47),#22,.T.);
#200=CLOSED_SHELL('',(#184,#185,#186,#187,#188,#189,#190,#191,#192,#193,
#194,#195,#196,#197,#198,#199));
#201=AXIS2_PLACEMENT_3D('placement',#297,#233,#234);
#202=AXIS2_PLACEMENT_3D('',#298,#235,#236);
#203=AXIS2_PLACEMENT_3D('',#300,#237,#238);
#204=AXIS2_PLACEMENT_3D('',#302,#239,#240);
#205=AXIS2_PLACEMENT_3D('',#303,#241,#242);
#206=AXIS2_PLACEMENT_3D('',#305,#243,#244);
#207=AXIS2_PLACEMENT_3D('',#306,#245,#246);
#208=AXIS2_PLACEMENT_3D('',#308,#247,#248);
#209=AXIS2_PLACEMENT_3D('',#309,#249,#250);
#210=AXIS2_PLACEMENT_3D('',#311,#251,#252);
#211=AXIS2_PLACEMENT_3D('',#313,#253,#254);
#212=AXIS2_PLACEMENT_3D('',#314,#255,#256);
#213=AXIS2_PLACEMENT_3D('',#316,#257,#258);
#214=AXIS2_PLACEMENT_3D('',#317,#259,#260);
#215=AXIS2_PLACEMENT_3D('',#319,#261,#262);
#216=AXIS2_PLACEMENT_3D('',#320,#263,#264);
#217=AXIS2_PLACEMENT_3D('',#322,#265,#266);
#218=AXIS2_PLACEMENT_3D('',#324,#267,#268);
#219=AXIS2_PLACEMENT_3D('',#325,#269,#270);
#220=AXIS2_PLACEMENT_3D('',#327,#271,#272);
#221=AXIS2_PLACEMENT_3D('',#328,#273,#274);
#222=AXIS2_PLACEMENT_3D('',#330,#275,#276);
#223=AXIS2_PLACEMENT_3D('',#331,#277,#278);
#224=AXIS2_PLACEMENT_3D('',#368,#279,#280);
#225=AXIS2_PLACEMENT_3D('',#369,#281,#282);
#226=AXIS2_PLACEMENT_3D('',#371,#283,#284);
#227=AXIS2_PLACEMENT_3D('',#373,#285,#286);
#228=AXIS2_PLACEMENT_3D('',#374,#287,#288);
#229=AXIS2_PLACEMENT_3D('',#375,#289,#290);
#230=AXIS2_PLACEMENT_3D('',#427,#291,#292);
#231=AXIS2_PLACEMENT_3D('',#428,#293,#294);
#232=AXIS2_PLACEMENT_3D('',#429,#295,#296);
#233=DIRECTION('axis',(0.,0.,1.));
#234=DIRECTION('refdir',(1.,0.,0.));
#235=DIRECTION('center_axis',(0.,0.,-1.));
#236=DIRECTION('ref_axis',(-1.,0.,0.));
#237=DIRECTION('center_axis',(0.,0.,-1.));
#238=DIRECTION('ref_axis',(-1.,0.,0.));
#239=DIRECTION('center_axis',(0.,0.,1.));
#240=DIRECTION('ref_axis',(-1.,0.,0.));
#241=DIRECTION('center_axis',(0.,0.,-1.));
#242=DIRECTION('ref_axis',(-1.,0.,0.));
#243=DIRECTION('center_axis',(0.,0.,-1.));
#244=DIRECTION('ref_axis',(-1.,0.,0.));
#245=DIRECTION('center_axis',(0.,0.,1.));
#246=DIRECTION('ref_axis',(1.,0.,0.));
#247=DIRECTION('center_axis',(0.,0.,1.));
#248=DIRECTION('ref_axis',(-1.,0.,0.));
#249=DIRECTION('center_axis',(0.,0.,1.));
#250=DIRECTION('ref_axis',(1.,0.,0.));
#251=DIRECTION('center_axis',(0.,0.,1.));
#252=DIRECTION('ref_axis',(-1.,0.,0.));
#253=DIRECTION('center_axis',(0.,0.,-1.));
#254=DIRECTION('ref_axis',(-1.,0.,0.));
#255=DIRECTION('center_axis',(0.,0.,-1.));
#256=DIRECTION('ref_axis',(-1.,0.,0.));
#257=DIRECTION('center_axis',(0.,0.,-1.));
#258=DIRECTION('ref_axis',(-1.,0.,0.));
#259=DIRECTION('center_axis',(0.,0.,1.));
#260=DIRECTION('ref_axis',(1.,0.,0.));
#261=DIRECTION('center_axis',(0.,0.,-1.));
#262=DIRECTION('ref_axis',(-1.,0.,0.));
#263=DIRECTION('center_axis',(0.,-1.,0.));
#264=DIRECTION('ref_axis',(0.,0.,-1.));
#265=DIRECTION('center_axis',(0.,-1.,0.));
#266=DIRECTION('ref_axis',(-1.,0.,0.));
#267=DIRECTION('center_axis',(0.,1.,0.));
#268=DIRECTION('ref_axis',(-1.,0.,0.));
#269=DIRECTION('center_axis',(0.,-1.,0.));
#270=DIRECTION('ref_axis',(-1.,0.,0.));
#271=DIRECTION('center_axis',(0.,-1.,0.));
#272=DIRECTION('ref_axis',(-1.,0.,0.));
#273=DIRECTION('center_axis',(0.,1.,0.));
#274=DIRECTION('ref_axis',(0.,0.,1.));
#275=DIRECTION('center_axis',(0.,-1.,0.));
#276=DIRECTION('ref_axis',(1.,0.,0.));
#277=DIRECTION('center_axis',(0.,-1.,0.));
#278=DIRECTION('ref_axis',(-1.,0.,0.));
#279=DIRECTION('center_axis',(0.,-1.,0.));
#280=DIRECTION('ref_axis',(-1.,0.,0.));
#281=DIRECTION('center_axis',(0.,0.,1.));
#282=DIRECTION('ref_axis',(1.,0.,0.));
#283=DIRECTION('center_axis',(0.,0.,-1.));
#284=DIRECTION('ref_axis',(1.,0.,0.));
#285=DIRECTION('center_axis',(0.,0.,1.));
#286=DIRECTION('ref_axis',(1.,0.,0.));
#287=DIRECTION('center_axis',(0.,1.,0.));
#288=DIRECTION('ref_axis',(0.,0.,1.));
#289=DIRECTION('center_axis',(0.,-1.,0.));
#290=DIRECTION('ref_axis',(1.,0.,0.));
#291=DIRECTION('center_axis',(0.,0.,1.));
#292=DIRECTION('ref_axis',(-1.,0.,0.));
#293=DIRECTION('center_axis',(0.,0.,1.));
#294=DIRECTION('ref_axis',(1.,0.,0.));
#295=DIRECTION('center_axis',(0.,0.,1.));
#296=DIRECTION('ref_axis',(1.,0.,0.));
#297=CARTESIAN_POINT('',(0.,0.,0.));
#298=CARTESIAN_POINT('Origin',(0.,0.,46.5));
#299=CARTESIAN_POINT('',(20.,-2.44929359829471E-15,46.5));
#300=CARTESIAN_POINT('Origin',(0.,0.,46.5));
#301=CARTESIAN_POINT('',(20.5,2.51052593825207E-15,47.));
#302=CARTESIAN_POINT('Origin',(0.,0.,47.));
#303=CARTESIAN_POINT('Origin',(0.,0.,47.));
#304=CARTESIAN_POINT('',(20.,2.44929359829471E-15,21.));
#305=CARTESIAN_POINT('Origin',(0.,0.,21.));
#306=CARTESIAN_POINT('Origin',(-1.42125498691048E-15,0.,47.));
#307=CARTESIAN_POINT('',(25.5,3.12284933782575E-15,47.));
#308=CARTESIAN_POINT('Origin',(0.,0.,47.));
#309=CARTESIAN_POINT('Origin',(0.,0.,-46.5));
#310=CARTESIAN_POINT('',(20.,2.44929359829471E-15,-46.5));
#311=CARTESIAN_POINT('Origin',(0.,0.,-46.5));
#312=CARTESIAN_POINT('',(20.5,-2.51052593825207E-15,-47.));
#313=CARTESIAN_POINT('Origin',(0.,0.,-47.));
#314=CARTESIAN_POINT('Origin',(0.,0.,-47.));
#315=CARTESIAN_POINT('',(20.,2.44929359829471E-15,-21.));
#316=CARTESIAN_POINT('Origin',(0.,0.,-21.));
#317=CARTESIAN_POINT('Origin',(-1.42125498691048E-15,0.,-47.));
#318=CARTESIAN_POINT('',(25.5,3.12284933782575E-15,-47.));
#319=CARTESIAN_POINT('Origin',(0.,0.,-47.));
#320=CARTESIAN_POINT('Origin',(0.,36.5,0.));
#321=CARTESIAN_POINT('',(10.,36.5,1.22464679914735E-15));
#322=CARTESIAN_POINT('Origin',(0.,36.5,0.));
#323=CARTESIAN_POINT('',(10.5,37.,-1.28587913910472E-15));
#324=CARTESIAN_POINT('Origin',(0.,37.,0.));
#325=CARTESIAN_POINT('Origin',(0.,37.,0.));
#326=CARTESIAN_POINT('',(10.,21.,-1.22464679914735E-15));
#327=CARTESIAN_POINT('Origin',(0.,21.,0.));
#328=CARTESIAN_POINT('Origin',(6.71553090674409E-16,37.,0.));
#329=CARTESIAN_POINT('',(-14.,37.,1.71450551880629E-15));
#330=CARTESIAN_POINT('Origin',(0.,37.,0.));
#331=CARTESIAN_POINT('Origin',(0.,21.,0.));
#332=CARTESIAN_POINT('',(9.25,16.8819430161341,-5.55111512312578E-16));
#333=CARTESIAN_POINT('Ctrl Pts',(9.25,16.8819430161341,-5.55111512312578E-16));
#334=CARTESIAN_POINT('Ctrl Pts',(9.25,16.8819430161341,-1.18448436700187));
#335=CARTESIAN_POINT('Ctrl Pts',(9.00926894470158,17.019869063791,-2.43114780350833));
#336=CARTESIAN_POINT('Ctrl Pts',(8.06006406543802,17.4893741992772,-4.70242567611204));
#337=CARTESIAN_POINT('Ctrl Pts',(7.35223443222016,17.8115587516956,-5.72924101973097));
#338=CARTESIAN_POINT('Ctrl Pts',(5.73108774097776,18.397234168917,-7.35038771097337));
#339=CARTESIAN_POINT('Ctrl Pts',(4.70363257740587,18.7023278108445,-8.05958269760397));
#340=CARTESIAN_POINT('Ctrl Pts',(2.42963277904798,19.1310770762975,-9.00987907933609));
#341=CARTESIAN_POINT('Ctrl Pts',(1.18178883856632,19.25,-9.25));
#342=CARTESIAN_POINT('Ctrl Pts',(-1.18178883856632,19.25,-9.25));
#343=CARTESIAN_POINT('Ctrl Pts',(-2.42963277904798,19.1310770762975,-9.00987907933608));
#344=CARTESIAN_POINT('Ctrl Pts',(-4.70363257740587,18.7023278108445,-8.05958269760397));
#345=CARTESIAN_POINT('Ctrl Pts',(-5.73108774097776,18.397234168917,-7.35038771097337));
#346=CARTESIAN_POINT('Ctrl Pts',(-7.35223443222016,17.8115587516956,-5.72924101973097));
#347=CARTESIAN_POINT('Ctrl Pts',(-8.06006406543802,17.4893741992772,-4.70242567611204));
#348=CARTESIAN_POINT('Ctrl Pts',(-9.00926894470158,17.019869063791,-2.43114780350833));
#349=CARTESIAN_POINT('Ctrl Pts',(-9.25,16.8819430161341,-1.18448436700187));
#350=CARTESIAN_POINT('Ctrl Pts',(-9.25,16.8819430161341,1.18448436700187));
#351=CARTESIAN_POINT('Ctrl Pts',(-9.00926894470158,17.019869063791,2.43114780350833));
#352=CARTESIAN_POINT('Ctrl Pts',(-8.06006406543802,17.4893741992772,4.70242567611204));
#353=CARTESIAN_POINT('Ctrl Pts',(-7.35223443222016,17.8115587516956,5.72924101973097));
#354=CARTESIAN_POINT('Ctrl Pts',(-5.73108774097776,18.397234168917,7.35038771097337));
#355=CARTESIAN_POINT('Ctrl Pts',(-4.70363257740587,18.7023278108445,8.05958269760397));
#356=CARTESIAN_POINT('Ctrl Pts',(-2.42963277904798,19.1310770762975,9.00987907933608));
#357=CARTESIAN_POINT('Ctrl Pts',(-1.18178883856632,19.25,9.25));
#358=CARTESIAN_POINT('Ctrl Pts',(1.18178883856632,19.25,9.25));
#359=CARTESIAN_POINT('Ctrl Pts',(2.42963277904797,19.1310770762975,9.00987907933609));
#360=CARTESIAN_POINT('Ctrl Pts',(4.70363257740587,18.7023278108445,8.05958269760398));
#361=CARTESIAN_POINT('Ctrl Pts',(5.73108774097776,18.397234168917,7.35038771097337));
#362=CARTESIAN_POINT('Ctrl Pts',(7.35223443222016,17.8115587516956,5.72924101973097));
#363=CARTESIAN_POINT('Ctrl Pts',(8.06006406543802,17.4893741992772,4.70242567611204));
#364=CARTESIAN_POINT('Ctrl Pts',(9.00926894470158,17.019869063791,2.43114780350832));
#365=CARTESIAN_POINT('Ctrl Pts',(9.25,16.8819430161341,1.18448436700187));
#366=CARTESIAN_POINT('Ctrl Pts',(9.25,16.8819430161341,5.55111512312578E-16));
#367=CARTESIAN_POINT('',(9.25,21.,-1.1327982892113E-15));
#368=CARTESIAN_POINT('Origin',(0.,21.,0.));
#369=CARTESIAN_POINT('Origin',(0.,0.,-21.));
#370=CARTESIAN_POINT('',(-19.25,2.35744508835865E-15,21.));
#371=CARTESIAN_POINT('Origin',(0.,0.,21.));
#372=CARTESIAN_POINT('',(-19.25,2.35744508835865E-15,-21.));
#373=CARTESIAN_POINT('Origin',(0.,0.,-21.));
#374=CARTESIAN_POINT('Origin',(-4.72128241470665E-16,21.,0.));
#375=CARTESIAN_POINT('Origin',(0.,37.,0.));
#376=CARTESIAN_POINT('',(14.,21.3131414859471,0.));
#377=CARTESIAN_POINT('Ctrl Pts',(14.,21.3131414859471,0.));
#378=CARTESIAN_POINT('Ctrl Pts',(14.,21.3131414859471,0.903224633004513));
#379=CARTESIAN_POINT('Ctrl Pts',(13.9112457377092,21.3722719303314,1.8285163559067));
#380=CARTESIAN_POINT('Ctrl Pts',(13.5467756789626,21.6051298045525,3.65391557541653));
#381=CARTESIAN_POINT('Ctrl Pts',(13.2712289864074,21.7783939042523,4.55411590673406));
#382=CARTESIAN_POINT('Ctrl Pts',(12.1922895241707,22.4119118630075,7.12812665591896));
#383=CARTESIAN_POINT('Ctrl Pts',(11.1236913102929,22.9843010296734,8.67529856293043));
#384=CARTESIAN_POINT('Ctrl Pts',(8.68045026453092,24.0135287897348,11.1185396086924));
#385=CARTESIAN_POINT('Ctrl Pts',(7.1316815343673,24.5455964133886,12.1908331968829));
#386=CARTESIAN_POINT('Ctrl Pts',(4.55199431800453,25.1058488197791,13.2721014028331));
#387=CARTESIAN_POINT('Ctrl Pts',(3.64980903700251,25.2541565138474,13.5479087862512));
#388=CARTESIAN_POINT('Ctrl Pts',(1.8235432021276,25.4512910757993,13.9119239748275));
#389=CARTESIAN_POINT('Ctrl Pts',(0.899423654756665,25.5,14.));
#390=CARTESIAN_POINT('Ctrl Pts',(-0.899423654756664,25.5,14.));
#391=CARTESIAN_POINT('Ctrl Pts',(-1.8235432021276,25.4512910757993,13.9119239748275));
#392=CARTESIAN_POINT('Ctrl Pts',(-3.64980903700251,25.2541565138474,13.5479087862512));
#393=CARTESIAN_POINT('Ctrl Pts',(-4.55199431800453,25.1058488197791,13.2721014028331));
#394=CARTESIAN_POINT('Ctrl Pts',(-7.1316815343673,24.5455964133886,12.1908331968829));
#395=CARTESIAN_POINT('Ctrl Pts',(-8.68045026453092,24.0135287897348,11.1185396086924));
#396=CARTESIAN_POINT('Ctrl Pts',(-11.1236913102929,22.9843010296734,8.67529856293043));
#397=CARTESIAN_POINT('Ctrl Pts',(-12.1922895241707,22.4119118630075,7.12812665591896));
#398=CARTESIAN_POINT('Ctrl Pts',(-13.2712289864074,21.7783939042523,4.55411590673406));
#399=CARTESIAN_POINT('Ctrl Pts',(-13.5467756789626,21.6051298045525,3.65391557541653));
#400=CARTESIAN_POINT('Ctrl Pts',(-13.9112457377092,21.3722719303314,1.8285163559067));
#401=CARTESIAN_POINT('Ctrl Pts',(-14.,21.3131414859471,0.903224633004512));
#402=CARTESIAN_POINT('Ctrl Pts',(-14.,21.3131414859471,-0.903224633004512));
#403=CARTESIAN_POINT('Ctrl Pts',(-13.9112457377092,21.3722719303314,-1.8285163559067));
#404=CARTESIAN_POINT('Ctrl Pts',(-13.5467756789626,21.6051298045525,-3.65391557541653));
#405=CARTESIAN_POINT('Ctrl Pts',(-13.2712289864074,21.7783939042523,-4.55411590673406));
#406=CARTESIAN_POINT('Ctrl Pts',(-12.1922895241707,22.4119118630075,-7.12812665591896));
#407=CARTESIAN_POINT('Ctrl Pts',(-11.1236913102929,22.9843010296734,-8.67529856293043));
#408=CARTESIAN_POINT('Ctrl Pts',(-8.68045026453092,24.0135287897348,-11.1185396086924));
#409=CARTESIAN_POINT('Ctrl Pts',(-7.1316815343673,24.5455964133886,-12.1908331968829));
#410=CARTESIAN_POINT('Ctrl Pts',(-4.55199431800453,25.1058488197791,-13.2721014028331));
#411=CARTESIAN_POINT('Ctrl Pts',(-3.64980903700251,25.2541565138474,-13.5479087862512));
#412=CARTESIAN_POINT('Ctrl Pts',(-1.82354320212761,25.4512910757993,-13.9119239748275));
#413=CARTESIAN_POINT('Ctrl Pts',(-0.899423654756666,25.5,-14.));
#414=CARTESIAN_POINT('Ctrl Pts',(0.899423654756661,25.5,-14.));
#415=CARTESIAN_POINT('Ctrl Pts',(1.8235432021276,25.4512910757993,-13.9119239748275));
#416=CARTESIAN_POINT('Ctrl Pts',(3.6498090370025,25.2541565138474,-13.5479087862512));
#417=CARTESIAN_POINT('Ctrl Pts',(4.55199431800452,25.1058488197791,-13.2721014028331));
#418=CARTESIAN_POINT('Ctrl Pts',(7.13168153436729,24.5455964133886,-12.1908331968829));
#419=CARTESIAN_POINT('Ctrl Pts',(8.68045026453092,24.0135287897348,-11.1185396086924));
#420=CARTESIAN_POINT('Ctrl Pts',(11.1236913102929,22.9843010296734,-8.67529856293043));
#421=CARTESIAN_POINT('Ctrl Pts',(12.1922895241707,22.4119118630075,-7.12812665591897));
#422=CARTESIAN_POINT('Ctrl Pts',(13.2712289864074,21.7783939042523,-4.55411590673406));
#423=CARTESIAN_POINT('Ctrl Pts',(13.5467756789626,21.6051298045524,-3.65391557541653));
#424=CARTESIAN_POINT('Ctrl Pts',(13.9112457377092,21.3722719303313,-1.8285163559067));
#425=CARTESIAN_POINT('Ctrl Pts',(14.,21.3131414859471,-0.903224633004515));
#426=CARTESIAN_POINT('Ctrl Pts',(14.,21.3131414859471,-2.77555756156289E-16));
#427=CARTESIAN_POINT('Origin',(0.,0.,0.));
#428=CARTESIAN_POINT('Origin',(-9.4425648294133E-16,0.,-21.));
#429=CARTESIAN_POINT('Origin',(-9.4425648294133E-16,0.,21.));
#430=UNCERTAINTY_MEASURE_WITH_UNIT(LENGTH_MEASURE(0.01),#434,
'DISTANCE_ACCURACY_VALUE',
'Maximum model space distance between geometric entities at asserted c
onnectivities');
#431=UNCERTAINTY_MEASURE_WITH_UNIT(LENGTH_MEASURE(1.E-6),#434,
'DISTANCE_ACCURACY_VALUE',
'Maximum model space distance between geometric entities at asserted c
onnectivities');
#432=(
GEOMETRIC_REPRESENTATION_CONTEXT(3)
GLOBAL_UNCERTAINTY_ASSIGNED_CONTEXT((#430))
GLOBAL_UNIT_ASSIGNED_CONTEXT((#434,#437,#435))
REPRESENTATION_CONTEXT('','3D')
);
#433=(
GEOMETRIC_REPRESENTATION_CONTEXT(3)
GLOBAL_UNCERTAINTY_ASSIGNED_CONTEXT((#431))
GLOBAL_UNIT_ASSIGNED_CONTEXT((#434,#437,#435))
REPRESENTATION_CONTEXT('','3D')
);
#434=(
LENGTH_UNIT()
NAMED_UNIT(*)
SI_UNIT(.MILLI.,.METRE.)
);
#435=(
NAMED_UNIT(*)
SI_UNIT($,.STERADIAN.)
SOLID_ANGLE_UNIT()
);
#436=DIMENSIONAL_EXPONENTS(0.,0.,0.,0.,0.,0.,0.);
#437=(
CONVERSION_BASED_UNIT('degree',#439)
NAMED_UNIT(#436)
PLANE_ANGLE_UNIT()
);
#438=(
NAMED_UNIT(*)
PLANE_ANGLE_UNIT()
SI_UNIT($,.RADIAN.)
);
#439=PLANE_ANGLE_MEASURE_WITH_UNIT(PLANE_ANGLE_MEASURE(0.01745329252),#438);
#440=SHAPE_DEFINITION_REPRESENTATION(#441,#442);
#441=PRODUCT_DEFINITION_SHAPE('',$,#444);
#442=SHAPE_REPRESENTATION('',(#201),#432);
#443=PRODUCT_DEFINITION_CONTEXT('part definition',#448,'design');
#444=PRODUCT_DEFINITION('TR40040B','TR40040B',#445,#443);
#445=PRODUCT_DEFINITION_FORMATION('',$,#450);
#446=PRODUCT_RELATED_PRODUCT_CATEGORY('TR40040B','TR40040B',(#450));
#447=APPLICATION_PROTOCOL_DEFINITION('international standard',
'automotive_design',2009,#448);
#448=APPLICATION_CONTEXT(
'Core Data for Automotive Mechanical Design Process');
#449=PRODUCT_CONTEXT('part definition',#448,'mechanical');
#450=PRODUCT('TR40040B','TR40040B',$,(#449));
#451=PRESENTATION_STYLE_ASSIGNMENT((#452));
#452=SURFACE_STYLE_USAGE(.BOTH.,#453);
#453=SURFACE_SIDE_STYLE('',(#454));
#454=SURFACE_STYLE_FILL_AREA(#455);
#455=FILL_AREA_STYLE('',(#456));
#456=FILL_AREA_STYLE_COLOUR('',#457);
#457=COLOUR_RGB('',0.8,0.8,0.8);
ENDSEC;
END-ISO-10303-21;
