ISO-10303-21;
HEADER;
/* Generated by software containing ST-Developer
 * from STEP Tools, Inc. (www.steptools.com) 
 */

FILE_DESCRIPTION(
/* description */ (''),
/* implementation_level */ '2;1');

FILE_NAME(
/* name */ 'C:\\Users\\Gabriele\\Desktop\\catalogo\\TR40\\TR40140I.stp',

/* time_stamp */ '2016-10-17T15:17:06+02:00',
/* author */ ('Gabriele'),
/* organization */ (''),
/* preprocessor_version */ 'ST-DEVELOPER v16.5',
/* originating_system */ 'Autodesk Inventor 2017',
/* authorisation */ '');

FILE_SCHEMA (('AUTOMOTIVE_DESIGN { 1 0 10303 214 3 1 1 }'));
ENDSEC;

DATA;
#10=MECHANICAL_DESIGN_GEOMETRIC_PRESENTATION_REPRESENTATION('',(#13),#481);
#11=SHAPE_REPRESENTATION_RELATIONSHIP('SRR','None',#490,#12);
#12=ADVANCED_BREP_SHAPE_REPRESENTATION('',(#14),#480);
#13=STYLED_ITEM('',(#499),#14);
#14=MANIFOLD_SOLID_BREP('Solido1',#200);
#15=B_SPLINE_CURVE_WITH_KNOTS('',3,(#333,#334,#335,#336,#337,#338,#339,
#340,#341,#342,#343,#344,#345,#346,#347,#348,#349,#350,#351,#352,#353,#354,
#355,#356,#357,#358,#359,#360,#361,#362,#363,#364,#365,#366,#367,#368,#369,
#370,#371,#372,#373,#374,#375,#376,#377,#378,#379,#380,#381,#382,#383,#384,
#385,#386,#387,#388,#389,#390,#391,#392,#393,#394,#395,#396,#397,#398),
 .UNSPECIFIED.,.T.,.F.,(4,2,2,2,2,2,2,2,2,2,2,2,2,2,2,2,2,2,2,2,2,2,2,2,
2,2,2,2,2,2,2,2,4),(0.,0.863127162003576,1.72625432400715,2.58938148601073,
3.4525086480143,4.30808606644232,5.16366348487034,6.01924090329836,6.87481832172638,
7.7303957401544,8.58597315858242,9.44155057701043,10.2971279954385,11.160255157442,
12.0233823194456,12.8865094814492,13.7496366434528,14.6127638054563,15.4758909674599,
16.3390181294635,17.2021452914671,18.0577227098951,18.9133001283231,19.7688775467511,
20.6244549651791,21.4800323836072,22.3356098020352,23.1911872204632,24.0467646388912,
24.9098918008948,25.7730189628984,26.6361461249019,27.4992732869055),
 .UNSPECIFIED.);
#16=B_SPLINE_CURVE_WITH_KNOTS('',3,(#409,#410,#411,#412,#413,#414,#415,
#416,#417,#418,#419,#420,#421,#422,#423,#424,#425,#426,#427,#428,#429,#430,
#431,#432,#433,#434,#435,#436,#437,#438,#439,#440,#441,#442,#443,#444,#445,
#446,#447,#448,#449,#450,#451,#452,#453,#454,#455,#456,#457,#458,#459,#460,
#461,#462,#463,#464,#465,#466,#467,#468,#469,#470,#471,#472,#473,#474),
 .UNSPECIFIED.,.T.,.F.,(4,2,2,2,2,2,2,2,2,2,2,2,2,2,2,2,2,2,2,2,2,2,2,2,
2,2,2,2,2,2,2,2,4),(0.,1.04211736331711,2.08423472663422,3.12635208995133,
4.16846945326844,5.20050967466443,6.23254989606042,7.26459011745641,8.2966303388524,
9.32867056024839,10.3607107816444,11.3927510030404,12.4247912244364,13.4669085877535,
14.5090259510706,15.5511433143877,16.5932606777048,17.6353780410219,18.677495404339,
19.7196127676561,20.7617301309732,21.7937703523692,22.8258105737652,23.8578507951612,
24.8898910165572,25.9219312379532,26.9539714593492,27.9860116807452,29.0180519021412,
30.0601692654583,31.1022866287754,32.1444039920925,33.1865213554096),
 .UNSPECIFIED.);
#17=PLANE('',#207);
#18=PLANE('',#214);
#19=PLANE('',#221);
#20=PLANE('',#228);
#21=PLANE('',#231);
#22=PLANE('',#232);
#23=CYLINDRICAL_SURFACE('',#205,70.);
#24=CYLINDRICAL_SURFACE('',#212,70.);
#25=CYLINDRICAL_SURFACE('',#219,45.);
#26=CYLINDRICAL_SURFACE('',#223,44.);
#27=CYLINDRICAL_SURFACE('',#225,69.);
#28=CYLINDRICAL_SURFACE('',#229,53.);
#29=CYLINDRICAL_SURFACE('',#230,81.5);
#30=FACE_BOUND('',#65,.T.);
#31=FACE_BOUND('',#67,.T.);
#32=FACE_BOUND('',#69,.T.);
#33=FACE_BOUND('',#71,.T.);
#34=FACE_BOUND('',#73,.T.);
#35=FACE_BOUND('',#75,.T.);
#36=FACE_BOUND('',#77,.T.);
#37=FACE_BOUND('',#79,.T.);
#38=FACE_BOUND('',#81,.T.);
#39=FACE_BOUND('',#83,.T.);
#40=FACE_BOUND('',#85,.T.);
#41=FACE_BOUND('',#86,.T.);
#42=FACE_BOUND('',#88,.T.);
#43=FACE_BOUND('',#90,.T.);
#44=FACE_BOUND('',#92,.T.);
#45=FACE_BOUND('',#93,.T.);
#46=FACE_BOUND('',#95,.T.);
#47=FACE_BOUND('',#97,.T.);
#48=FACE_OUTER_BOUND('',#64,.T.);
#49=FACE_OUTER_BOUND('',#66,.T.);
#50=FACE_OUTER_BOUND('',#68,.T.);
#51=FACE_OUTER_BOUND('',#70,.T.);
#52=FACE_OUTER_BOUND('',#72,.T.);
#53=FACE_OUTER_BOUND('',#74,.T.);
#54=FACE_OUTER_BOUND('',#76,.T.);
#55=FACE_OUTER_BOUND('',#78,.T.);
#56=FACE_OUTER_BOUND('',#80,.T.);
#57=FACE_OUTER_BOUND('',#82,.T.);
#58=FACE_OUTER_BOUND('',#84,.T.);
#59=FACE_OUTER_BOUND('',#87,.T.);
#60=FACE_OUTER_BOUND('',#89,.T.);
#61=FACE_OUTER_BOUND('',#91,.T.);
#62=FACE_OUTER_BOUND('',#94,.T.);
#63=FACE_OUTER_BOUND('',#96,.T.);
#64=EDGE_LOOP('',(#147));
#65=EDGE_LOOP('',(#148));
#66=EDGE_LOOP('',(#149));
#67=EDGE_LOOP('',(#150));
#68=EDGE_LOOP('',(#151));
#69=EDGE_LOOP('',(#152));
#70=EDGE_LOOP('',(#153));
#71=EDGE_LOOP('',(#154));
#72=EDGE_LOOP('',(#155));
#73=EDGE_LOOP('',(#156));
#74=EDGE_LOOP('',(#157));
#75=EDGE_LOOP('',(#158));
#76=EDGE_LOOP('',(#159));
#77=EDGE_LOOP('',(#160));
#78=EDGE_LOOP('',(#161));
#79=EDGE_LOOP('',(#162));
#80=EDGE_LOOP('',(#163));
#81=EDGE_LOOP('',(#164));
#82=EDGE_LOOP('',(#165));
#83=EDGE_LOOP('',(#166));
#84=EDGE_LOOP('',(#167));
#85=EDGE_LOOP('',(#168));
#86=EDGE_LOOP('',(#169));
#87=EDGE_LOOP('',(#170));
#88=EDGE_LOOP('',(#171));
#89=EDGE_LOOP('',(#172));
#90=EDGE_LOOP('',(#173));
#91=EDGE_LOOP('',(#174));
#92=EDGE_LOOP('',(#175));
#93=EDGE_LOOP('',(#176));
#94=EDGE_LOOP('',(#177));
#95=EDGE_LOOP('',(#178));
#96=EDGE_LOOP('',(#179));
#97=EDGE_LOOP('',(#180));
#98=CIRCLE('',#203,70.);
#99=CIRCLE('',#204,70.5);
#100=CIRCLE('',#206,70.);
#101=CIRCLE('',#208,81.5);
#102=CIRCLE('',#210,70.);
#103=CIRCLE('',#211,70.5);
#104=CIRCLE('',#213,70.);
#105=CIRCLE('',#215,81.5);
#106=CIRCLE('',#217,45.);
#107=CIRCLE('',#218,45.5);
#108=CIRCLE('',#220,45.);
#109=CIRCLE('',#222,53.);
#110=CIRCLE('',#224,44.);
#111=CIRCLE('',#226,69.);
#112=CIRCLE('',#227,69.);
#113=VERTEX_POINT('',#299);
#114=VERTEX_POINT('',#301);
#115=VERTEX_POINT('',#304);
#116=VERTEX_POINT('',#307);
#117=VERTEX_POINT('',#310);
#118=VERTEX_POINT('',#312);
#119=VERTEX_POINT('',#315);
#120=VERTEX_POINT('',#318);
#121=VERTEX_POINT('',#321);
#122=VERTEX_POINT('',#323);
#123=VERTEX_POINT('',#326);
#124=VERTEX_POINT('',#329);
#125=VERTEX_POINT('',#332);
#126=VERTEX_POINT('',#399);
#127=VERTEX_POINT('',#402);
#128=VERTEX_POINT('',#404);
#129=VERTEX_POINT('',#408);
#130=EDGE_CURVE('',#113,#113,#98,.T.);
#131=EDGE_CURVE('',#114,#114,#99,.T.);
#132=EDGE_CURVE('',#115,#115,#100,.T.);
#133=EDGE_CURVE('',#116,#116,#101,.T.);
#134=EDGE_CURVE('',#117,#117,#102,.T.);
#135=EDGE_CURVE('',#118,#118,#103,.T.);
#136=EDGE_CURVE('',#119,#119,#104,.T.);
#137=EDGE_CURVE('',#120,#120,#105,.T.);
#138=EDGE_CURVE('',#121,#121,#106,.T.);
#139=EDGE_CURVE('',#122,#122,#107,.T.);
#140=EDGE_CURVE('',#123,#123,#108,.T.);
#141=EDGE_CURVE('',#124,#124,#109,.T.);
#142=EDGE_CURVE('',#125,#125,#15,.T.);
#143=EDGE_CURVE('',#126,#126,#110,.T.);
#144=EDGE_CURVE('',#127,#127,#111,.T.);
#145=EDGE_CURVE('',#128,#128,#112,.T.);
#146=EDGE_CURVE('',#129,#129,#16,.T.);
#147=ORIENTED_EDGE('',*,*,#130,.T.);
#148=ORIENTED_EDGE('',*,*,#131,.T.);
#149=ORIENTED_EDGE('',*,*,#132,.T.);
#150=ORIENTED_EDGE('',*,*,#130,.F.);
#151=ORIENTED_EDGE('',*,*,#133,.T.);
#152=ORIENTED_EDGE('',*,*,#131,.F.);
#153=ORIENTED_EDGE('',*,*,#134,.T.);
#154=ORIENTED_EDGE('',*,*,#135,.T.);
#155=ORIENTED_EDGE('',*,*,#136,.F.);
#156=ORIENTED_EDGE('',*,*,#134,.F.);
#157=ORIENTED_EDGE('',*,*,#137,.T.);
#158=ORIENTED_EDGE('',*,*,#135,.F.);
#159=ORIENTED_EDGE('',*,*,#138,.T.);
#160=ORIENTED_EDGE('',*,*,#139,.T.);
#161=ORIENTED_EDGE('',*,*,#140,.T.);
#162=ORIENTED_EDGE('',*,*,#138,.F.);
#163=ORIENTED_EDGE('',*,*,#141,.F.);
#164=ORIENTED_EDGE('',*,*,#139,.F.);
#165=ORIENTED_EDGE('',*,*,#142,.F.);
#166=ORIENTED_EDGE('',*,*,#143,.F.);
#167=ORIENTED_EDGE('',*,*,#144,.F.);
#168=ORIENTED_EDGE('',*,*,#142,.T.);
#169=ORIENTED_EDGE('',*,*,#145,.F.);
#170=ORIENTED_EDGE('',*,*,#140,.F.);
#171=ORIENTED_EDGE('',*,*,#143,.T.);
#172=ORIENTED_EDGE('',*,*,#141,.T.);
#173=ORIENTED_EDGE('',*,*,#146,.F.);
#174=ORIENTED_EDGE('',*,*,#133,.F.);
#175=ORIENTED_EDGE('',*,*,#137,.F.);
#176=ORIENTED_EDGE('',*,*,#146,.T.);
#177=ORIENTED_EDGE('',*,*,#136,.T.);
#178=ORIENTED_EDGE('',*,*,#145,.T.);
#179=ORIENTED_EDGE('',*,*,#132,.F.);
#180=ORIENTED_EDGE('',*,*,#144,.T.);
#181=TOROIDAL_SURFACE('',#202,70.5,0.5);
#182=TOROIDAL_SURFACE('',#209,70.5,0.5);
#183=TOROIDAL_SURFACE('',#216,45.5,0.5);
#184=ADVANCED_FACE('',(#48,#30),#181,.T.);
#185=ADVANCED_FACE('',(#49,#31),#23,.F.);
#186=ADVANCED_FACE('',(#50,#32),#17,.T.);
#187=ADVANCED_FACE('',(#51,#33),#182,.T.);
#188=ADVANCED_FACE('',(#52,#34),#24,.F.);
#189=ADVANCED_FACE('',(#53,#35),#18,.F.);
#190=ADVANCED_FACE('',(#54,#36),#183,.T.);
#191=ADVANCED_FACE('',(#55,#37),#25,.F.);
#192=ADVANCED_FACE('',(#56,#38),#19,.T.);
#193=ADVANCED_FACE('',(#57,#39),#26,.F.);
#194=ADVANCED_FACE('',(#58,#40,#41),#27,.F.);
#195=ADVANCED_FACE('',(#59,#42),#20,.T.);
#196=ADVANCED_FACE('',(#60,#43),#28,.T.);
#197=ADVANCED_FACE('',(#61,#44,#45),#29,.T.);
#198=ADVANCED_FACE('',(#62,#46),#21,.F.);
#199=ADVANCED_FACE('',(#63,#47),#22,.T.);
#200=CLOSED_SHELL('',(#184,#185,#186,#187,#188,#189,#190,#191,#192,#193,
#194,#195,#196,#197,#198,#199));
#201=AXIS2_PLACEMENT_3D('placement',#297,#233,#234);
#202=AXIS2_PLACEMENT_3D('',#298,#235,#236);
#203=AXIS2_PLACEMENT_3D('',#300,#237,#238);
#204=AXIS2_PLACEMENT_3D('',#302,#239,#240);
#205=AXIS2_PLACEMENT_3D('',#303,#241,#242);
#206=AXIS2_PLACEMENT_3D('',#305,#243,#244);
#207=AXIS2_PLACEMENT_3D('',#306,#245,#246);
#208=AXIS2_PLACEMENT_3D('',#308,#247,#248);
#209=AXIS2_PLACEMENT_3D('',#309,#249,#250);
#210=AXIS2_PLACEMENT_3D('',#311,#251,#252);
#211=AXIS2_PLACEMENT_3D('',#313,#253,#254);
#212=AXIS2_PLACEMENT_3D('',#314,#255,#256);
#213=AXIS2_PLACEMENT_3D('',#316,#257,#258);
#214=AXIS2_PLACEMENT_3D('',#317,#259,#260);
#215=AXIS2_PLACEMENT_3D('',#319,#261,#262);
#216=AXIS2_PLACEMENT_3D('',#320,#263,#264);
#217=AXIS2_PLACEMENT_3D('',#322,#265,#266);
#218=AXIS2_PLACEMENT_3D('',#324,#267,#268);
#219=AXIS2_PLACEMENT_3D('',#325,#269,#270);
#220=AXIS2_PLACEMENT_3D('',#327,#271,#272);
#221=AXIS2_PLACEMENT_3D('',#328,#273,#274);
#222=AXIS2_PLACEMENT_3D('',#330,#275,#276);
#223=AXIS2_PLACEMENT_3D('',#331,#277,#278);
#224=AXIS2_PLACEMENT_3D('',#400,#279,#280);
#225=AXIS2_PLACEMENT_3D('',#401,#281,#282);
#226=AXIS2_PLACEMENT_3D('',#403,#283,#284);
#227=AXIS2_PLACEMENT_3D('',#405,#285,#286);
#228=AXIS2_PLACEMENT_3D('',#406,#287,#288);
#229=AXIS2_PLACEMENT_3D('',#407,#289,#290);
#230=AXIS2_PLACEMENT_3D('',#475,#291,#292);
#231=AXIS2_PLACEMENT_3D('',#476,#293,#294);
#232=AXIS2_PLACEMENT_3D('',#477,#295,#296);
#233=DIRECTION('axis',(0.,0.,1.));
#234=DIRECTION('refdir',(1.,0.,0.));
#235=DIRECTION('center_axis',(0.,0.,-1.));
#236=DIRECTION('ref_axis',(-1.,0.,0.));
#237=DIRECTION('center_axis',(0.,0.,-1.));
#238=DIRECTION('ref_axis',(-1.,0.,0.));
#239=DIRECTION('center_axis',(0.,0.,1.));
#240=DIRECTION('ref_axis',(-1.,0.,0.));
#241=DIRECTION('center_axis',(0.,0.,-1.));
#242=DIRECTION('ref_axis',(-1.,0.,0.));
#243=DIRECTION('center_axis',(0.,0.,-1.));
#244=DIRECTION('ref_axis',(-1.,0.,0.));
#245=DIRECTION('center_axis',(0.,0.,1.));
#246=DIRECTION('ref_axis',(1.,0.,0.));
#247=DIRECTION('center_axis',(0.,0.,1.));
#248=DIRECTION('ref_axis',(-1.,0.,0.));
#249=DIRECTION('center_axis',(0.,0.,1.));
#250=DIRECTION('ref_axis',(1.,0.,0.));
#251=DIRECTION('center_axis',(0.,0.,1.));
#252=DIRECTION('ref_axis',(-1.,0.,0.));
#253=DIRECTION('center_axis',(0.,0.,-1.));
#254=DIRECTION('ref_axis',(-1.,0.,0.));
#255=DIRECTION('center_axis',(0.,0.,-1.));
#256=DIRECTION('ref_axis',(-1.,0.,0.));
#257=DIRECTION('center_axis',(0.,0.,-1.));
#258=DIRECTION('ref_axis',(-1.,0.,0.));
#259=DIRECTION('center_axis',(0.,0.,1.));
#260=DIRECTION('ref_axis',(1.,0.,0.));
#261=DIRECTION('center_axis',(0.,0.,-1.));
#262=DIRECTION('ref_axis',(-1.,0.,0.));
#263=DIRECTION('center_axis',(0.,-1.,0.));
#264=DIRECTION('ref_axis',(0.,0.,-1.));
#265=DIRECTION('center_axis',(0.,-1.,0.));
#266=DIRECTION('ref_axis',(-1.,0.,0.));
#267=DIRECTION('center_axis',(0.,1.,0.));
#268=DIRECTION('ref_axis',(-1.,0.,0.));
#269=DIRECTION('center_axis',(0.,-1.,0.));
#270=DIRECTION('ref_axis',(-1.,0.,0.));
#271=DIRECTION('center_axis',(0.,-1.,0.));
#272=DIRECTION('ref_axis',(-1.,0.,0.));
#273=DIRECTION('center_axis',(0.,1.,0.));
#274=DIRECTION('ref_axis',(0.,0.,1.));
#275=DIRECTION('center_axis',(0.,-1.,0.));
#276=DIRECTION('ref_axis',(1.,0.,0.));
#277=DIRECTION('center_axis',(0.,-1.,0.));
#278=DIRECTION('ref_axis',(-1.,0.,0.));
#279=DIRECTION('center_axis',(0.,-1.,0.));
#280=DIRECTION('ref_axis',(-1.,0.,0.));
#281=DIRECTION('center_axis',(0.,0.,1.));
#282=DIRECTION('ref_axis',(1.,0.,0.));
#283=DIRECTION('center_axis',(0.,0.,-1.));
#284=DIRECTION('ref_axis',(1.,0.,0.));
#285=DIRECTION('center_axis',(0.,0.,1.));
#286=DIRECTION('ref_axis',(1.,0.,0.));
#287=DIRECTION('center_axis',(0.,1.,0.));
#288=DIRECTION('ref_axis',(0.,0.,1.));
#289=DIRECTION('center_axis',(0.,-1.,0.));
#290=DIRECTION('ref_axis',(1.,0.,0.));
#291=DIRECTION('center_axis',(0.,0.,1.));
#292=DIRECTION('ref_axis',(-1.,0.,0.));
#293=DIRECTION('center_axis',(0.,0.,1.));
#294=DIRECTION('ref_axis',(1.,0.,0.));
#295=DIRECTION('center_axis',(0.,0.,1.));
#296=DIRECTION('ref_axis',(1.,0.,0.));
#297=CARTESIAN_POINT('',(0.,0.,0.));
#298=CARTESIAN_POINT('Origin',(0.,0.,147.5));
#299=CARTESIAN_POINT('',(70.,-8.57252759403147E-15,147.5));
#300=CARTESIAN_POINT('Origin',(0.,0.,147.5));
#301=CARTESIAN_POINT('',(70.5,8.63375993398884E-15,148.));
#302=CARTESIAN_POINT('Origin',(0.,0.,148.));
#303=CARTESIAN_POINT('Origin',(0.,0.,148.));
#304=CARTESIAN_POINT('',(70.,8.57252759403147E-15,72.));
#305=CARTESIAN_POINT('Origin',(0.,0.,72.));
#306=CARTESIAN_POINT('Origin',(-6.64394980188594E-15,-1.45305262936626E-15,
148.));
#307=CARTESIAN_POINT('',(81.5,9.98087141305093E-15,148.));
#308=CARTESIAN_POINT('Origin',(0.,0.,148.));
#309=CARTESIAN_POINT('Origin',(0.,0.,-147.5));
#310=CARTESIAN_POINT('',(70.,8.57252759403147E-15,-147.5));
#311=CARTESIAN_POINT('Origin',(0.,0.,-147.5));
#312=CARTESIAN_POINT('',(70.5,-8.63375993398884E-15,-148.));
#313=CARTESIAN_POINT('Origin',(0.,0.,-148.));
#314=CARTESIAN_POINT('Origin',(0.,0.,-148.));
#315=CARTESIAN_POINT('',(70.,8.57252759403147E-15,-72.));
#316=CARTESIAN_POINT('Origin',(0.,0.,-72.));
#317=CARTESIAN_POINT('Origin',(-6.64394980188594E-15,-1.45305262936626E-15,
-148.));
#318=CARTESIAN_POINT('',(81.5,9.98087141305093E-15,-148.));
#319=CARTESIAN_POINT('Origin',(0.,0.,-148.));
#320=CARTESIAN_POINT('Origin',(0.,122.5,0.));
#321=CARTESIAN_POINT('',(45.,122.5,5.51091059616309E-15));
#322=CARTESIAN_POINT('Origin',(0.,122.5,0.));
#323=CARTESIAN_POINT('',(45.5,123.,-5.57214293612046E-15));
#324=CARTESIAN_POINT('Origin',(0.,123.,0.));
#325=CARTESIAN_POINT('Origin',(0.,123.,0.));
#326=CARTESIAN_POINT('',(45.,72.,-5.51091059616309E-15));
#327=CARTESIAN_POINT('Origin',(0.,72.,0.));
#328=CARTESIAN_POINT('Origin',(5.40885669623414E-16,123.,0.));
#329=CARTESIAN_POINT('',(-53.,123.,6.49062803548097E-15));
#330=CARTESIAN_POINT('Origin',(0.,123.,0.));
#331=CARTESIAN_POINT('Origin',(0.,72.,0.));
#332=CARTESIAN_POINT('',(44.,53.1507290636733,8.32667268468867E-15));
#333=CARTESIAN_POINT('Ctrl Pts',(44.,53.1507290636733,8.32667268468867E-15));
#334=CARTESIAN_POINT('Ctrl Pts',(44.,53.1507290636733,-2.87709054001191));
#335=CARTESIAN_POINT('Ctrl Pts',(43.7137897967234,53.3915318070864,-5.8070471759439));
#336=CARTESIAN_POINT('Ctrl Pts',(42.5549565555524,54.3196718943239,-11.5625642994663));
#337=CARTESIAN_POINT('Ctrl Pts',(41.6829944447123,55.0044134453309,-14.3886761352339));
#338=CARTESIAN_POINT('Ctrl Pts',(39.4191360493751,56.6488195098779,-19.7645730415408));
#339=CARTESIAN_POINT('Ctrl Pts',(38.0253577367684,57.6073793417283,-22.3200452566858));
#340=CARTESIAN_POINT('Ctrl Pts',(34.830440724274,59.5934424583085,-27.0361360239195));
#341=CARTESIAN_POINT('Ctrl Pts',(33.0285431849117,60.6194896358546,-29.1968535595045));
#342=CARTESIAN_POINT('Ctrl Pts',(29.2136113881342,62.5467173634613,-33.011785356282));
#343=CARTESIAN_POINT('Ctrl Pts',(27.0617478986871,63.5219989046795,-34.8107384771236));
#344=CARTESIAN_POINT('Ctrl Pts',(22.3439193610525,65.3309406916677,-38.0115111628037));
#345=CARTESIAN_POINT('Ctrl Pts',(19.777678876186,66.1635091744163,-39.4135416594125));
#346=CARTESIAN_POINT('Ctrl Pts',(14.3773859725692,67.5430035509456,-41.6878242056422));
#347=CARTESIAN_POINT('Ctrl Pts',(11.5376948385172,68.0905015995274,-42.5619304289223));
#348=CARTESIAN_POINT('Ctrl Pts',(5.77503709812756,68.819210666951,-43.7182487137399));
#349=CARTESIAN_POINT('Ctrl Pts',(2.8519247280934,69.,-44.));
#350=CARTESIAN_POINT('Ctrl Pts',(-2.85192472809339,69.,-44.));
#351=CARTESIAN_POINT('Ctrl Pts',(-5.77503709812755,68.819210666951,-43.7182487137399));
#352=CARTESIAN_POINT('Ctrl Pts',(-11.5376948385172,68.0905015995274,-42.5619304289224));
#353=CARTESIAN_POINT('Ctrl Pts',(-14.3773859725692,67.5430035509456,-41.6878242056422));
#354=CARTESIAN_POINT('Ctrl Pts',(-19.777678876186,66.1635091744163,-39.4135416594125));
#355=CARTESIAN_POINT('Ctrl Pts',(-22.3439193610525,65.3309406916677,-38.0115111628037));
#356=CARTESIAN_POINT('Ctrl Pts',(-27.0617478986871,63.5219989046795,-34.8107384771237));
#357=CARTESIAN_POINT('Ctrl Pts',(-29.2136113881342,62.5467173634613,-33.011785356282));
#358=CARTESIAN_POINT('Ctrl Pts',(-33.0285431849117,60.6194896358546,-29.1968535595045));
#359=CARTESIAN_POINT('Ctrl Pts',(-34.830440724274,59.5934424583085,-27.0361360239195));
#360=CARTESIAN_POINT('Ctrl Pts',(-38.0253577367684,57.6073793417283,-22.3200452566858));
#361=CARTESIAN_POINT('Ctrl Pts',(-39.4191360493751,56.6488195098779,-19.7645730415408));
#362=CARTESIAN_POINT('Ctrl Pts',(-41.6829944447123,55.0044134453309,-14.3886761352339));
#363=CARTESIAN_POINT('Ctrl Pts',(-42.5549565555524,54.3196718943239,-11.5625642994663));
#364=CARTESIAN_POINT('Ctrl Pts',(-43.7137897967234,53.3915318070864,-5.8070471759439));
#365=CARTESIAN_POINT('Ctrl Pts',(-44.,53.1507290636733,-2.87709054001192));
#366=CARTESIAN_POINT('Ctrl Pts',(-44.,53.1507290636733,2.87709054001193));
#367=CARTESIAN_POINT('Ctrl Pts',(-43.7137897967234,53.3915318070864,5.80704717594391));
#368=CARTESIAN_POINT('Ctrl Pts',(-42.5549565555524,54.3196718943239,11.5625642994663));
#369=CARTESIAN_POINT('Ctrl Pts',(-41.6829944447123,55.0044134453309,14.3886761352339));
#370=CARTESIAN_POINT('Ctrl Pts',(-39.4191360493751,56.6488195098779,19.7645730415408));
#371=CARTESIAN_POINT('Ctrl Pts',(-38.0253577367684,57.6073793417283,22.3200452566858));
#372=CARTESIAN_POINT('Ctrl Pts',(-34.830440724274,59.5934424583085,27.0361360239195));
#373=CARTESIAN_POINT('Ctrl Pts',(-33.0285431849117,60.6194896358546,29.1968535595045));
#374=CARTESIAN_POINT('Ctrl Pts',(-29.2136113881342,62.5467173634613,33.011785356282));
#375=CARTESIAN_POINT('Ctrl Pts',(-27.061747898687,63.5219989046795,34.8107384771237));
#376=CARTESIAN_POINT('Ctrl Pts',(-22.3439193610525,65.3309406916677,38.0115111628037));
#377=CARTESIAN_POINT('Ctrl Pts',(-19.777678876186,66.1635091744163,39.4135416594125));
#378=CARTESIAN_POINT('Ctrl Pts',(-14.3773859725692,67.5430035509456,41.6878242056422));
#379=CARTESIAN_POINT('Ctrl Pts',(-11.5376948385172,68.0905015995274,42.5619304289223));
#380=CARTESIAN_POINT('Ctrl Pts',(-5.77503709812757,68.819210666951,43.7182487137399));
#381=CARTESIAN_POINT('Ctrl Pts',(-2.85192472809341,69.,44.));
#382=CARTESIAN_POINT('Ctrl Pts',(2.85192472809338,69.,44.));
#383=CARTESIAN_POINT('Ctrl Pts',(5.77503709812754,68.819210666951,43.7182487137399));
#384=CARTESIAN_POINT('Ctrl Pts',(11.5376948385172,68.0905015995274,42.5619304289224));
#385=CARTESIAN_POINT('Ctrl Pts',(14.3773859725692,67.5430035509456,41.6878242056422));
#386=CARTESIAN_POINT('Ctrl Pts',(19.7776788761859,66.1635091744163,39.4135416594125));
#387=CARTESIAN_POINT('Ctrl Pts',(22.3439193610525,65.3309406916677,38.0115111628037));
#388=CARTESIAN_POINT('Ctrl Pts',(27.061747898687,63.5219989046795,34.8107384771237));
#389=CARTESIAN_POINT('Ctrl Pts',(29.2136113881341,62.5467173634613,33.011785356282));
#390=CARTESIAN_POINT('Ctrl Pts',(33.0285431849116,60.6194896358546,29.1968535595045));
#391=CARTESIAN_POINT('Ctrl Pts',(34.830440724274,59.5934424583085,27.0361360239195));
#392=CARTESIAN_POINT('Ctrl Pts',(38.0253577367684,57.6073793417283,22.3200452566858));
#393=CARTESIAN_POINT('Ctrl Pts',(39.4191360493751,56.6488195098779,19.7645730415409));
#394=CARTESIAN_POINT('Ctrl Pts',(41.6829944447123,55.0044134453309,14.3886761352339));
#395=CARTESIAN_POINT('Ctrl Pts',(42.5549565555524,54.3196718943239,11.5625642994663));
#396=CARTESIAN_POINT('Ctrl Pts',(43.7137897967234,53.3915318070864,5.80704717594394));
#397=CARTESIAN_POINT('Ctrl Pts',(44.,53.1507290636732,2.87709054001194));
#398=CARTESIAN_POINT('Ctrl Pts',(44.,53.1507290636732,9.99200722162641E-15));
#399=CARTESIAN_POINT('',(44.,72.,-5.38844591624836E-15));
#400=CARTESIAN_POINT('Origin',(0.,72.,0.));
#401=CARTESIAN_POINT('Origin',(0.,0.,-71.9999999999999));
#402=CARTESIAN_POINT('',(-69.,8.45006291411674E-15,71.9999999999999));
#403=CARTESIAN_POINT('Origin',(0.,0.,71.9999999999999));
#404=CARTESIAN_POINT('',(-69.,8.45006291411674E-15,-71.9999999999999));
#405=CARTESIAN_POINT('Origin',(0.,0.,-71.9999999999999));
#406=CARTESIAN_POINT('Origin',(-1.77506243071748E-15,72.,0.));
#407=CARTESIAN_POINT('Origin',(0.,123.,0.));
#408=CARTESIAN_POINT('',(53.,61.9132457556539,-1.11022302462516E-15));
#409=CARTESIAN_POINT('Ctrl Pts',(53.,61.9132457556539,-1.11022302462516E-15));
#410=CARTESIAN_POINT('Ctrl Pts',(53.,61.9132457556539,3.47372454439037));
#411=CARTESIAN_POINT('Ctrl Pts',(52.6537165505617,62.2146266652283,7.00728727450195));
#412=CARTESIAN_POINT('Ctrl Pts',(51.2552507499416,63.3717042571414,13.9432858571081));
#413=CARTESIAN_POINT('Ctrl Pts',(50.2038857098408,64.2239962844791,17.3464540097265));
#414=CARTESIAN_POINT('Ctrl Pts',(47.4766120775035,66.265544875185,23.8180981198971));
#415=CARTESIAN_POINT('Ctrl Pts',(45.7984177184819,67.453410404976,26.8934462821329));
#416=CARTESIAN_POINT('Ctrl Pts',(41.9521864972315,69.9104547844443,32.569411534972));
#417=CARTESIAN_POINT('Ctrl Pts',(39.7831916975186,71.177906188245,35.1701271082555));
#418=CARTESIAN_POINT('Ctrl Pts',(35.1924309812134,73.5551468258939,39.7608878245607));
#419=CARTESIAN_POINT('Ctrl Pts',(32.603588454517,74.7566479721243,41.9258755420663));
#420=CARTESIAN_POINT('Ctrl Pts',(26.9255863618143,76.9841749651679,45.7797533861083));
#421=CARTESIAN_POINT('Ctrl Pts',(23.8360807274723,78.0088935298228,47.4688891242935));
#422=CARTESIAN_POINT('Ctrl Pts',(17.3320330491358,79.706630145167,50.2101076358927));
#423=CARTESIAN_POINT('Ctrl Pts',(13.9106411225144,80.3803858649386,51.2644318224973));
#424=CARTESIAN_POINT('Ctrl Pts',(6.96478146815018,81.2773288648607,52.659659377095));
#425=CARTESIAN_POINT('Ctrl Pts',(3.44013407131997,81.5,53.));
#426=CARTESIAN_POINT('Ctrl Pts',(-3.44013407131996,81.5,53.));
#427=CARTESIAN_POINT('Ctrl Pts',(-6.96478146815018,81.2773288648607,52.659659377095));
#428=CARTESIAN_POINT('Ctrl Pts',(-13.9106411225144,80.3803858649386,51.2644318224973));
#429=CARTESIAN_POINT('Ctrl Pts',(-17.3320330491358,79.706630145167,50.2101076358927));
#430=CARTESIAN_POINT('Ctrl Pts',(-23.8360807274723,78.0088935298228,47.4688891242935));
#431=CARTESIAN_POINT('Ctrl Pts',(-26.9255863618143,76.9841749651679,45.7797533861083));
#432=CARTESIAN_POINT('Ctrl Pts',(-32.603588454517,74.7566479721243,41.9258755420663));
#433=CARTESIAN_POINT('Ctrl Pts',(-35.1924309812134,73.5551468258939,39.7608878245607));
#434=CARTESIAN_POINT('Ctrl Pts',(-39.7831916975186,71.177906188245,35.1701271082555));
#435=CARTESIAN_POINT('Ctrl Pts',(-41.9521864972315,69.9104547844443,32.569411534972));
#436=CARTESIAN_POINT('Ctrl Pts',(-45.7984177184819,67.453410404976,26.8934462821329));
#437=CARTESIAN_POINT('Ctrl Pts',(-47.4766120775035,66.265544875185,23.8180981198971));
#438=CARTESIAN_POINT('Ctrl Pts',(-50.2038857098408,64.2239962844791,17.3464540097265));
#439=CARTESIAN_POINT('Ctrl Pts',(-51.2552507499416,63.3717042571414,13.9432858571081));
#440=CARTESIAN_POINT('Ctrl Pts',(-52.6537165505617,62.2146266652283,7.00728727450195));
#441=CARTESIAN_POINT('Ctrl Pts',(-53.,61.9132457556539,3.47372454439037));
#442=CARTESIAN_POINT('Ctrl Pts',(-53.,61.9132457556539,-3.47372454439037));
#443=CARTESIAN_POINT('Ctrl Pts',(-52.6537165505617,62.2146266652283,-7.00728727450196));
#444=CARTESIAN_POINT('Ctrl Pts',(-51.2552507499416,63.3717042571414,-13.9432858571081));
#445=CARTESIAN_POINT('Ctrl Pts',(-50.2038857098408,64.2239962844792,-17.3464540097265));
#446=CARTESIAN_POINT('Ctrl Pts',(-47.4766120775035,66.2655448751851,-23.8180981198971));
#447=CARTESIAN_POINT('Ctrl Pts',(-45.7984177184819,67.453410404976,-26.8934462821328));
#448=CARTESIAN_POINT('Ctrl Pts',(-41.9521864972315,69.9104547844443,-32.569411534972));
#449=CARTESIAN_POINT('Ctrl Pts',(-39.7831916975186,71.177906188245,-35.1701271082554));
#450=CARTESIAN_POINT('Ctrl Pts',(-35.1924309812134,73.5551468258939,-39.7608878245607));
#451=CARTESIAN_POINT('Ctrl Pts',(-32.603588454517,74.7566479721243,-41.9258755420663));
#452=CARTESIAN_POINT('Ctrl Pts',(-26.9255863618144,76.9841749651679,-45.7797533861083));
#453=CARTESIAN_POINT('Ctrl Pts',(-23.8360807274723,78.0088935298228,-47.4688891242934));
#454=CARTESIAN_POINT('Ctrl Pts',(-17.3320330491358,79.706630145167,-50.2101076358927));
#455=CARTESIAN_POINT('Ctrl Pts',(-13.9106411225144,80.3803858649386,-51.2644318224973));
#456=CARTESIAN_POINT('Ctrl Pts',(-6.96478146815019,81.2773288648607,-52.659659377095));
#457=CARTESIAN_POINT('Ctrl Pts',(-3.44013407131997,81.5,-53.));
#458=CARTESIAN_POINT('Ctrl Pts',(3.44013407131995,81.5,-53.));
#459=CARTESIAN_POINT('Ctrl Pts',(6.96478146815016,81.2773288648607,-52.659659377095));
#460=CARTESIAN_POINT('Ctrl Pts',(13.9106411225144,80.3803858649386,-51.2644318224973));
#461=CARTESIAN_POINT('Ctrl Pts',(17.3320330491358,79.706630145167,-50.2101076358927));
#462=CARTESIAN_POINT('Ctrl Pts',(23.8360807274723,78.0088935298228,-47.4688891242935));
#463=CARTESIAN_POINT('Ctrl Pts',(26.9255863618143,76.9841749651679,-45.7797533861083));
#464=CARTESIAN_POINT('Ctrl Pts',(32.603588454517,74.7566479721243,-41.9258755420663));
#465=CARTESIAN_POINT('Ctrl Pts',(35.1924309812134,73.5551468258939,-39.7608878245607));
#466=CARTESIAN_POINT('Ctrl Pts',(39.7831916975186,71.177906188245,-35.1701271082555));
#467=CARTESIAN_POINT('Ctrl Pts',(41.9521864972315,69.9104547844443,-32.5694115349721));
#468=CARTESIAN_POINT('Ctrl Pts',(45.7984177184819,67.453410404976,-26.8934462821329));
#469=CARTESIAN_POINT('Ctrl Pts',(47.4766120775035,66.265544875185,-23.8180981198972));
#470=CARTESIAN_POINT('Ctrl Pts',(50.2038857098408,64.2239962844791,-17.3464540097266));
#471=CARTESIAN_POINT('Ctrl Pts',(51.2552507499416,63.3717042571414,-13.9432858571081));
#472=CARTESIAN_POINT('Ctrl Pts',(52.6537165505617,62.2146266652283,-7.00728727450196));
#473=CARTESIAN_POINT('Ctrl Pts',(53.,61.9132457556539,-3.47372454439037));
#474=CARTESIAN_POINT('Ctrl Pts',(53.,61.9132457556539,0.));
#475=CARTESIAN_POINT('Origin',(0.,0.,0.));
#476=CARTESIAN_POINT('Origin',(-7.48145097340834E-15,1.69176841847643E-15,
-71.9999999999999));
#477=CARTESIAN_POINT('Origin',(-7.48145097340834E-15,1.69176841847643E-15,
71.9999999999999));
#478=UNCERTAINTY_MEASURE_WITH_UNIT(LENGTH_MEASURE(0.01),#482,
'DISTANCE_ACCURACY_VALUE',
'Maximum model space distance between geometric entities at asserted c
onnectivities');
#479=UNCERTAINTY_MEASURE_WITH_UNIT(LENGTH_MEASURE(1.E-6),#482,
'DISTANCE_ACCURACY_VALUE',
'Maximum model space distance between geometric entities at asserted c
onnectivities');
#480=(
GEOMETRIC_REPRESENTATION_CONTEXT(3)
GLOBAL_UNCERTAINTY_ASSIGNED_CONTEXT((#478))
GLOBAL_UNIT_ASSIGNED_CONTEXT((#482,#485,#483))
REPRESENTATION_CONTEXT('','3D')
);
#481=(
GEOMETRIC_REPRESENTATION_CONTEXT(3)
GLOBAL_UNCERTAINTY_ASSIGNED_CONTEXT((#479))
GLOBAL_UNIT_ASSIGNED_CONTEXT((#482,#485,#483))
REPRESENTATION_CONTEXT('','3D')
);
#482=(
LENGTH_UNIT()
NAMED_UNIT(*)
SI_UNIT(.MILLI.,.METRE.)
);
#483=(
NAMED_UNIT(*)
SI_UNIT($,.STERADIAN.)
SOLID_ANGLE_UNIT()
);
#484=DIMENSIONAL_EXPONENTS(0.,0.,0.,0.,0.,0.,0.);
#485=(
CONVERSION_BASED_UNIT('degree',#487)
NAMED_UNIT(#484)
PLANE_ANGLE_UNIT()
);
#486=(
NAMED_UNIT(*)
PLANE_ANGLE_UNIT()
SI_UNIT($,.RADIAN.)
);
#487=PLANE_ANGLE_MEASURE_WITH_UNIT(PLANE_ANGLE_MEASURE(0.01745329252),#486);
#488=SHAPE_DEFINITION_REPRESENTATION(#489,#490);
#489=PRODUCT_DEFINITION_SHAPE('',$,#492);
#490=SHAPE_REPRESENTATION('',(#201),#480);
#491=PRODUCT_DEFINITION_CONTEXT('part definition',#496,'design');
#492=PRODUCT_DEFINITION('TR40140I','TR40140I',#493,#491);
#493=PRODUCT_DEFINITION_FORMATION('',$,#498);
#494=PRODUCT_RELATED_PRODUCT_CATEGORY('TR40140I','TR40140I',(#498));
#495=APPLICATION_PROTOCOL_DEFINITION('international standard',
'automotive_design',2009,#496);
#496=APPLICATION_CONTEXT(
'Core Data for Automotive Mechanical Design Process');
#497=PRODUCT_CONTEXT('part definition',#496,'mechanical');
#498=PRODUCT('TR40140I','TR40140I',$,(#497));
#499=PRESENTATION_STYLE_ASSIGNMENT((#500));
#500=SURFACE_STYLE_USAGE(.BOTH.,#501);
#501=SURFACE_SIDE_STYLE('',(#502));
#502=SURFACE_STYLE_FILL_AREA(#503);
#503=FILL_AREA_STYLE('',(#504));
#504=FILL_AREA_STYLE_COLOUR('',#505);
#505=COLOUR_RGB('',0.8,0.8,0.8);
ENDSEC;
END-ISO-10303-21;
