ISO-10303-21;
HEADER;
/* Generated by software containing ST-Developer
 * from STEP Tools, Inc. (www.steptools.com) 
 */

FILE_DESCRIPTION(
/* description */ (''),
/* implementation_level */ '2;1');

FILE_NAME(
/* name */ 
'Q:\\Ric010\\FF7\\FIPlastiCAD\\FIP\\Lavoro\\PVC Fittings\\PVC Fittings
 STEP\\KIFV\\KIFV075063112.ipt.stp',
/* time_stamp */ '2013-10-01T14:44:45+02:00',
/* author */ ('bfaro'),
/* organization */ (''),
/* preprocessor_version */ 'ST-DEVELOPER v15.2',
/* originating_system */ 'Autodesk Inventor 2014',
/* authorisation */ '');

FILE_SCHEMA (('AUTOMOTIVE_DESIGN { 1 0 10303 214 3 1 1 }'));
ENDSEC;

DATA;
#10=SHAPE_REPRESENTATION_RELATIONSHIP('SRR','None',#644,#11);
#11=ADVANCED_BREP_SHAPE_REPRESENTATION($,(#378),#635);
#12=LINE($,#569,#44);
#13=LINE($,#571,#45);
#14=LINE($,#573,#46);
#15=LINE($,#575,#47);
#16=LINE($,#577,#48);
#17=LINE($,#579,#49);
#18=LINE($,#581,#50);
#19=LINE($,#582,#51);
#20=LINE($,#585,#52);
#21=LINE($,#587,#53);
#22=LINE($,#588,#54);
#23=LINE($,#589,#55);
#24=LINE($,#592,#56);
#25=LINE($,#593,#57);
#26=LINE($,#594,#58);
#27=LINE($,#598,#59);
#28=LINE($,#599,#60);
#29=LINE($,#600,#61);
#30=LINE($,#604,#62);
#31=LINE($,#605,#63);
#32=LINE($,#606,#64);
#33=LINE($,#610,#65);
#34=LINE($,#611,#66);
#35=LINE($,#612,#67);
#36=LINE($,#615,#68);
#37=LINE($,#616,#69);
#38=LINE($,#617,#70);
#39=LINE($,#620,#71);
#40=LINE($,#621,#72);
#41=LINE($,#622,#73);
#42=LINE($,#624,#74);
#43=LINE($,#625,#75);
#44=VECTOR($,#461,31.06601717757);
#45=VECTOR($,#462,31.0660171843087);
#46=VECTOR($,#463,31.066017177572);
#47=VECTOR($,#464,31.0660171775749);
#48=VECTOR($,#465,31.066017177566);
#49=VECTOR($,#466,31.0660171775735);
#50=VECTOR($,#467,31.066017177574);
#51=VECTOR($,#468,31.0660171775742);
#52=VECTOR($,#471,9.3);
#53=VECTOR($,#472,9.3);
#54=VECTOR($,#473,15.5330085896254);
#55=VECTOR($,#474,15.5330085879446);
#56=VECTOR($,#477,9.3);
#57=VECTOR($,#478,15.5332372916684);
#58=VECTOR($,#479,15.5327798926403);
#59=VECTOR($,#484,9.3);
#60=VECTOR($,#485,15.5330088338997);
#61=VECTOR($,#486,15.5330083436746);
#62=VECTOR($,#491,9.3);
#63=VECTOR($,#492,15.533008582052);
#64=VECTOR($,#493,15.53300859552);
#65=VECTOR($,#498,9.3);
#66=VECTOR($,#499,15.5330082001518);
#67=VECTOR($,#500,15.5330089774222);
#68=VECTOR($,#503,9.3);
#69=VECTOR($,#504,15.5328592144987);
#70=VECTOR($,#505,15.5331579630762);
#71=VECTOR($,#508,9.3);
#72=VECTOR($,#509,15.5328952728603);
#73=VECTOR($,#510,15.5331219047132);
#74=VECTOR($,#513,15.5330085895174);
#75=VECTOR($,#514,15.5330085880486);
#76=PLANE($,#399);
#77=PLANE($,#400);
#78=PLANE($,#401);
#79=PLANE($,#402);
#80=PLANE($,#403);
#81=PLANE($,#404);
#82=PLANE($,#405);
#83=PLANE($,#406);
#84=PLANE($,#407);
#85=PLANE($,#408);
#86=PLANE($,#409);
#87=PLANE($,#410);
#88=PLANE($,#411);
#89=PLANE($,#412);
#90=PLANE($,#413);
#91=PLANE($,#414);
#92=PLANE($,#415);
#93=PLANE($,#416);
#94=PLANE($,#417);
#95=PLANE($,#418);
#96=FACE_BOUND($,#129,.T.);
#97=FACE_BOUND($,#131,.T.);
#98=FACE_BOUND($,#133,.T.);
#99=FACE_BOUND($,#135,.T.);
#100=FACE_BOUND($,#137,.T.);
#101=FACE_BOUND($,#155,.T.);
#102=FACE_BOUND($,#156,.T.);
#103=FACE_BOUND($,#157,.T.);
#104=FACE_BOUND($,#159,.T.);
#105=FACE_OUTER_BOUND($,#128,.T.);
#106=FACE_OUTER_BOUND($,#130,.T.);
#107=FACE_OUTER_BOUND($,#132,.T.);
#108=FACE_OUTER_BOUND($,#134,.T.);
#109=FACE_OUTER_BOUND($,#136,.T.);
#110=FACE_OUTER_BOUND($,#138,.T.);
#111=FACE_OUTER_BOUND($,#139,.T.);
#112=FACE_OUTER_BOUND($,#140,.T.);
#113=FACE_OUTER_BOUND($,#141,.T.);
#114=FACE_OUTER_BOUND($,#142,.T.);
#115=FACE_OUTER_BOUND($,#143,.T.);
#116=FACE_OUTER_BOUND($,#144,.T.);
#117=FACE_OUTER_BOUND($,#145,.T.);
#118=FACE_OUTER_BOUND($,#146,.T.);
#119=FACE_OUTER_BOUND($,#147,.T.);
#120=FACE_OUTER_BOUND($,#148,.T.);
#121=FACE_OUTER_BOUND($,#149,.T.);
#122=FACE_OUTER_BOUND($,#150,.T.);
#123=FACE_OUTER_BOUND($,#151,.T.);
#124=FACE_OUTER_BOUND($,#152,.T.);
#125=FACE_OUTER_BOUND($,#153,.T.);
#126=FACE_OUTER_BOUND($,#154,.T.);
#127=FACE_OUTER_BOUND($,#158,.T.);
#128=EDGE_LOOP($,(#253));
#129=EDGE_LOOP($,(#254));
#130=EDGE_LOOP($,(#255));
#131=EDGE_LOOP($,(#256));
#132=EDGE_LOOP($,(#257));
#133=EDGE_LOOP($,(#258));
#134=EDGE_LOOP($,(#259,#260,#261,#262,#263,#264,#265,#266));
#135=EDGE_LOOP($,(#267));
#136=EDGE_LOOP($,(#268,#269,#270,#271,#272,#273,#274,#275));
#137=EDGE_LOOP($,(#276));
#138=EDGE_LOOP($,(#277,#278,#279,#280,#281));
#139=EDGE_LOOP($,(#282,#283,#284,#285,#286));
#140=EDGE_LOOP($,(#287,#288,#289));
#141=EDGE_LOOP($,(#290,#291,#292,#293,#294));
#142=EDGE_LOOP($,(#295,#296,#297));
#143=EDGE_LOOP($,(#298,#299,#300,#301,#302));
#144=EDGE_LOOP($,(#303,#304,#305));
#145=EDGE_LOOP($,(#306,#307,#308,#309,#310));
#146=EDGE_LOOP($,(#311,#312,#313,#314,#315));
#147=EDGE_LOOP($,(#316,#317,#318,#319,#320));
#148=EDGE_LOOP($,(#321,#322,#323,#324,#325));
#149=EDGE_LOOP($,(#326,#327,#328));
#150=EDGE_LOOP($,(#329,#330,#331));
#151=EDGE_LOOP($,(#332,#333,#334));
#152=EDGE_LOOP($,(#335,#336,#337));
#153=EDGE_LOOP($,(#338,#339,#340));
#154=EDGE_LOOP($,(#341));
#155=EDGE_LOOP($,(#342));
#156=EDGE_LOOP($,(#343));
#157=EDGE_LOOP($,(#344));
#158=EDGE_LOOP($,(#345));
#159=EDGE_LOOP($,(#346));
#160=CIRCLE($,#381,24.);
#161=CIRCLE($,#382,24.);
#162=CIRCLE($,#384,21.);
#163=CIRCLE($,#385,21.);
#164=CIRCLE($,#387,31.5);
#165=CIRCLE($,#388,31.5);
#166=CIRCLE($,#390,37.5);
#167=CIRCLE($,#391,37.5);
#168=CIRCLE($,#392,37.5);
#169=CIRCLE($,#393,37.5);
#170=CIRCLE($,#394,37.5);
#171=CIRCLE($,#395,37.5);
#172=CIRCLE($,#396,37.5);
#173=CIRCLE($,#397,37.5);
#174=CIRCLE($,#398,37.5);
#175=VERTEX_POINT($,#533);
#176=VERTEX_POINT($,#535);
#177=VERTEX_POINT($,#538);
#178=VERTEX_POINT($,#540);
#179=VERTEX_POINT($,#543);
#180=VERTEX_POINT($,#545);
#181=VERTEX_POINT($,#548);
#182=VERTEX_POINT($,#549);
#183=VERTEX_POINT($,#551);
#184=VERTEX_POINT($,#553);
#185=VERTEX_POINT($,#555);
#186=VERTEX_POINT($,#557);
#187=VERTEX_POINT($,#559);
#188=VERTEX_POINT($,#561);
#189=VERTEX_POINT($,#564);
#190=VERTEX_POINT($,#567);
#191=VERTEX_POINT($,#568);
#192=VERTEX_POINT($,#570);
#193=VERTEX_POINT($,#572);
#194=VERTEX_POINT($,#574);
#195=VERTEX_POINT($,#576);
#196=VERTEX_POINT($,#578);
#197=VERTEX_POINT($,#580);
#198=VERTEX_POINT($,#584);
#199=VERTEX_POINT($,#586);
#200=VERTEX_POINT($,#591);
#201=VERTEX_POINT($,#597);
#202=VERTEX_POINT($,#603);
#203=VERTEX_POINT($,#609);
#204=VERTEX_POINT($,#614);
#205=VERTEX_POINT($,#619);
#206=EDGE_CURVE($,#175,#175,#160,.T.);
#207=EDGE_CURVE($,#176,#176,#161,.T.);
#208=EDGE_CURVE($,#177,#177,#162,.T.);
#209=EDGE_CURVE($,#178,#178,#163,.T.);
#210=EDGE_CURVE($,#179,#179,#164,.T.);
#211=EDGE_CURVE($,#180,#180,#165,.T.);
#212=EDGE_CURVE($,#181,#182,#166,.T.);
#213=EDGE_CURVE($,#182,#183,#167,.T.);
#214=EDGE_CURVE($,#183,#184,#168,.T.);
#215=EDGE_CURVE($,#184,#185,#169,.T.);
#216=EDGE_CURVE($,#185,#186,#170,.T.);
#217=EDGE_CURVE($,#186,#187,#171,.T.);
#218=EDGE_CURVE($,#187,#188,#172,.T.);
#219=EDGE_CURVE($,#188,#181,#173,.T.);
#220=EDGE_CURVE($,#189,#189,#174,.T.);
#221=EDGE_CURVE($,#190,#191,#12,.T.);
#222=EDGE_CURVE($,#192,#190,#13,.T.);
#223=EDGE_CURVE($,#193,#192,#14,.T.);
#224=EDGE_CURVE($,#194,#193,#15,.T.);
#225=EDGE_CURVE($,#195,#194,#16,.T.);
#226=EDGE_CURVE($,#196,#195,#17,.T.);
#227=EDGE_CURVE($,#197,#196,#18,.T.);
#228=EDGE_CURVE($,#191,#197,#19,.T.);
#229=EDGE_CURVE($,#190,#198,#20,.T.);
#230=EDGE_CURVE($,#191,#199,#21,.T.);
#231=EDGE_CURVE($,#187,#199,#22,.T.);
#232=EDGE_CURVE($,#198,#187,#23,.T.);
#233=EDGE_CURVE($,#192,#200,#24,.T.);
#234=EDGE_CURVE($,#186,#198,#25,.T.);
#235=EDGE_CURVE($,#200,#186,#26,.T.);
#236=EDGE_CURVE($,#197,#201,#27,.T.);
#237=EDGE_CURVE($,#188,#201,#28,.T.);
#238=EDGE_CURVE($,#199,#188,#29,.T.);
#239=EDGE_CURVE($,#193,#202,#30,.T.);
#240=EDGE_CURVE($,#185,#200,#31,.T.);
#241=EDGE_CURVE($,#202,#185,#32,.T.);
#242=EDGE_CURVE($,#196,#203,#33,.T.);
#243=EDGE_CURVE($,#181,#203,#34,.T.);
#244=EDGE_CURVE($,#201,#181,#35,.T.);
#245=EDGE_CURVE($,#194,#204,#36,.T.);
#246=EDGE_CURVE($,#184,#202,#37,.T.);
#247=EDGE_CURVE($,#204,#184,#38,.T.);
#248=EDGE_CURVE($,#195,#205,#39,.T.);
#249=EDGE_CURVE($,#182,#205,#40,.T.);
#250=EDGE_CURVE($,#203,#182,#41,.T.);
#251=EDGE_CURVE($,#183,#204,#42,.T.);
#252=EDGE_CURVE($,#205,#183,#43,.T.);
#253=ORIENTED_EDGE($,*,*,#206,.F.);
#254=ORIENTED_EDGE($,*,*,#207,.T.);
#255=ORIENTED_EDGE($,*,*,#208,.F.);
#256=ORIENTED_EDGE($,*,*,#209,.T.);
#257=ORIENTED_EDGE($,*,*,#210,.T.);
#258=ORIENTED_EDGE($,*,*,#211,.F.);
#259=ORIENTED_EDGE($,*,*,#212,.T.);
#260=ORIENTED_EDGE($,*,*,#213,.T.);
#261=ORIENTED_EDGE($,*,*,#214,.T.);
#262=ORIENTED_EDGE($,*,*,#215,.T.);
#263=ORIENTED_EDGE($,*,*,#216,.T.);
#264=ORIENTED_EDGE($,*,*,#217,.T.);
#265=ORIENTED_EDGE($,*,*,#218,.T.);
#266=ORIENTED_EDGE($,*,*,#219,.T.);
#267=ORIENTED_EDGE($,*,*,#220,.F.);
#268=ORIENTED_EDGE($,*,*,#221,.F.);
#269=ORIENTED_EDGE($,*,*,#222,.F.);
#270=ORIENTED_EDGE($,*,*,#223,.F.);
#271=ORIENTED_EDGE($,*,*,#224,.F.);
#272=ORIENTED_EDGE($,*,*,#225,.F.);
#273=ORIENTED_EDGE($,*,*,#226,.F.);
#274=ORIENTED_EDGE($,*,*,#227,.F.);
#275=ORIENTED_EDGE($,*,*,#228,.F.);
#276=ORIENTED_EDGE($,*,*,#206,.T.);
#277=ORIENTED_EDGE($,*,*,#229,.F.);
#278=ORIENTED_EDGE($,*,*,#221,.T.);
#279=ORIENTED_EDGE($,*,*,#230,.T.);
#280=ORIENTED_EDGE($,*,*,#231,.F.);
#281=ORIENTED_EDGE($,*,*,#232,.F.);
#282=ORIENTED_EDGE($,*,*,#233,.F.);
#283=ORIENTED_EDGE($,*,*,#222,.T.);
#284=ORIENTED_EDGE($,*,*,#229,.T.);
#285=ORIENTED_EDGE($,*,*,#234,.F.);
#286=ORIENTED_EDGE($,*,*,#235,.F.);
#287=ORIENTED_EDGE($,*,*,#232,.T.);
#288=ORIENTED_EDGE($,*,*,#217,.F.);
#289=ORIENTED_EDGE($,*,*,#234,.T.);
#290=ORIENTED_EDGE($,*,*,#230,.F.);
#291=ORIENTED_EDGE($,*,*,#228,.T.);
#292=ORIENTED_EDGE($,*,*,#236,.T.);
#293=ORIENTED_EDGE($,*,*,#237,.F.);
#294=ORIENTED_EDGE($,*,*,#238,.F.);
#295=ORIENTED_EDGE($,*,*,#231,.T.);
#296=ORIENTED_EDGE($,*,*,#238,.T.);
#297=ORIENTED_EDGE($,*,*,#218,.F.);
#298=ORIENTED_EDGE($,*,*,#239,.F.);
#299=ORIENTED_EDGE($,*,*,#223,.T.);
#300=ORIENTED_EDGE($,*,*,#233,.T.);
#301=ORIENTED_EDGE($,*,*,#240,.F.);
#302=ORIENTED_EDGE($,*,*,#241,.F.);
#303=ORIENTED_EDGE($,*,*,#216,.F.);
#304=ORIENTED_EDGE($,*,*,#240,.T.);
#305=ORIENTED_EDGE($,*,*,#235,.T.);
#306=ORIENTED_EDGE($,*,*,#236,.F.);
#307=ORIENTED_EDGE($,*,*,#227,.T.);
#308=ORIENTED_EDGE($,*,*,#242,.T.);
#309=ORIENTED_EDGE($,*,*,#243,.F.);
#310=ORIENTED_EDGE($,*,*,#244,.F.);
#311=ORIENTED_EDGE($,*,*,#245,.F.);
#312=ORIENTED_EDGE($,*,*,#224,.T.);
#313=ORIENTED_EDGE($,*,*,#239,.T.);
#314=ORIENTED_EDGE($,*,*,#246,.F.);
#315=ORIENTED_EDGE($,*,*,#247,.F.);
#316=ORIENTED_EDGE($,*,*,#242,.F.);
#317=ORIENTED_EDGE($,*,*,#226,.T.);
#318=ORIENTED_EDGE($,*,*,#248,.T.);
#319=ORIENTED_EDGE($,*,*,#249,.F.);
#320=ORIENTED_EDGE($,*,*,#250,.F.);
#321=ORIENTED_EDGE($,*,*,#248,.F.);
#322=ORIENTED_EDGE($,*,*,#225,.T.);
#323=ORIENTED_EDGE($,*,*,#245,.T.);
#324=ORIENTED_EDGE($,*,*,#251,.F.);
#325=ORIENTED_EDGE($,*,*,#252,.F.);
#326=ORIENTED_EDGE($,*,*,#237,.T.);
#327=ORIENTED_EDGE($,*,*,#244,.T.);
#328=ORIENTED_EDGE($,*,*,#219,.F.);
#329=ORIENTED_EDGE($,*,*,#215,.F.);
#330=ORIENTED_EDGE($,*,*,#246,.T.);
#331=ORIENTED_EDGE($,*,*,#241,.T.);
#332=ORIENTED_EDGE($,*,*,#243,.T.);
#333=ORIENTED_EDGE($,*,*,#250,.T.);
#334=ORIENTED_EDGE($,*,*,#212,.F.);
#335=ORIENTED_EDGE($,*,*,#214,.F.);
#336=ORIENTED_EDGE($,*,*,#251,.T.);
#337=ORIENTED_EDGE($,*,*,#247,.T.);
#338=ORIENTED_EDGE($,*,*,#249,.T.);
#339=ORIENTED_EDGE($,*,*,#252,.T.);
#340=ORIENTED_EDGE($,*,*,#213,.F.);
#341=ORIENTED_EDGE($,*,*,#220,.T.);
#342=ORIENTED_EDGE($,*,*,#210,.F.);
#343=ORIENTED_EDGE($,*,*,#208,.T.);
#344=ORIENTED_EDGE($,*,*,#211,.T.);
#345=ORIENTED_EDGE($,*,*,#207,.F.);
#346=ORIENTED_EDGE($,*,*,#209,.F.);
#347=CYLINDRICAL_SURFACE($,#380,24.);
#348=CYLINDRICAL_SURFACE($,#383,21.);
#349=CYLINDRICAL_SURFACE($,#386,31.5);
#350=CYLINDRICAL_SURFACE($,#389,37.5);
#351=STYLED_ITEM($,(#653),#353);
#352=STYLED_ITEM($,(#652),#378);
#353=ADVANCED_FACE($,(#105,#96),#347,.T.);
#354=ADVANCED_FACE($,(#106,#97),#348,.F.);
#355=ADVANCED_FACE($,(#107,#98),#349,.F.);
#356=ADVANCED_FACE($,(#108,#99),#350,.T.);
#357=ADVANCED_FACE($,(#109,#100),#76,.T.);
#358=ADVANCED_FACE($,(#110),#77,.F.);
#359=ADVANCED_FACE($,(#111),#78,.F.);
#360=ADVANCED_FACE($,(#112),#79,.F.);
#361=ADVANCED_FACE($,(#113),#80,.F.);
#362=ADVANCED_FACE($,(#114),#81,.F.);
#363=ADVANCED_FACE($,(#115),#82,.F.);
#364=ADVANCED_FACE($,(#116),#83,.F.);
#365=ADVANCED_FACE($,(#117),#84,.F.);
#366=ADVANCED_FACE($,(#118),#85,.F.);
#367=ADVANCED_FACE($,(#119),#86,.F.);
#368=ADVANCED_FACE($,(#120),#87,.F.);
#369=ADVANCED_FACE($,(#121),#88,.F.);
#370=ADVANCED_FACE($,(#122),#89,.F.);
#371=ADVANCED_FACE($,(#123),#90,.F.);
#372=ADVANCED_FACE($,(#124),#91,.F.);
#373=ADVANCED_FACE($,(#125),#92,.F.);
#374=ADVANCED_FACE($,(#126,#101),#93,.T.);
#375=ADVANCED_FACE($,(#102,#103),#94,.T.);
#376=ADVANCED_FACE($,(#127,#104),#95,.F.);
#377=CLOSED_SHELL($,(#353,#354,#355,#356,#357,#358,#359,#360,#361,#362,
#363,#364,#365,#366,#367,#368,#369,#370,#371,#372,#373,#374,#375,#376));
#378=MANIFOLD_SOLID_BREP('4FA',#377);
#379=AXIS2_PLACEMENT_3D('placement',#531,#419,#420);
#380=AXIS2_PLACEMENT_3D($,#532,#421,#422);
#381=AXIS2_PLACEMENT_3D($,#534,#423,#424);
#382=AXIS2_PLACEMENT_3D($,#536,#425,#426);
#383=AXIS2_PLACEMENT_3D($,#537,#427,#428);
#384=AXIS2_PLACEMENT_3D($,#539,#429,#430);
#385=AXIS2_PLACEMENT_3D($,#541,#431,#432);
#386=AXIS2_PLACEMENT_3D($,#542,#433,#434);
#387=AXIS2_PLACEMENT_3D($,#544,#435,#436);
#388=AXIS2_PLACEMENT_3D($,#546,#437,#438);
#389=AXIS2_PLACEMENT_3D($,#547,#439,#440);
#390=AXIS2_PLACEMENT_3D($,#550,#441,#442);
#391=AXIS2_PLACEMENT_3D($,#552,#443,#444);
#392=AXIS2_PLACEMENT_3D($,#554,#445,#446);
#393=AXIS2_PLACEMENT_3D($,#556,#447,#448);
#394=AXIS2_PLACEMENT_3D($,#558,#449,#450);
#395=AXIS2_PLACEMENT_3D($,#560,#451,#452);
#396=AXIS2_PLACEMENT_3D($,#562,#453,#454);
#397=AXIS2_PLACEMENT_3D($,#563,#455,#456);
#398=AXIS2_PLACEMENT_3D($,#565,#457,#458);
#399=AXIS2_PLACEMENT_3D($,#566,#459,#460);
#400=AXIS2_PLACEMENT_3D($,#583,#469,#470);
#401=AXIS2_PLACEMENT_3D($,#590,#475,#476);
#402=AXIS2_PLACEMENT_3D($,#595,#480,#481);
#403=AXIS2_PLACEMENT_3D($,#596,#482,#483);
#404=AXIS2_PLACEMENT_3D($,#601,#487,#488);
#405=AXIS2_PLACEMENT_3D($,#602,#489,#490);
#406=AXIS2_PLACEMENT_3D($,#607,#494,#495);
#407=AXIS2_PLACEMENT_3D($,#608,#496,#497);
#408=AXIS2_PLACEMENT_3D($,#613,#501,#502);
#409=AXIS2_PLACEMENT_3D($,#618,#506,#507);
#410=AXIS2_PLACEMENT_3D($,#623,#511,#512);
#411=AXIS2_PLACEMENT_3D($,#626,#515,#516);
#412=AXIS2_PLACEMENT_3D($,#627,#517,#518);
#413=AXIS2_PLACEMENT_3D($,#628,#519,#520);
#414=AXIS2_PLACEMENT_3D($,#629,#521,#522);
#415=AXIS2_PLACEMENT_3D($,#630,#523,#524);
#416=AXIS2_PLACEMENT_3D($,#631,#525,#526);
#417=AXIS2_PLACEMENT_3D($,#632,#527,#528);
#418=AXIS2_PLACEMENT_3D($,#633,#529,#530);
#419=DIRECTION('axis',(0.,0.,1.));
#420=DIRECTION('refdir',(1.,0.,0.));
#421=DIRECTION('center_axis',(0.,0.,-1.));
#422=DIRECTION('ref_axis',(1.,0.,0.));
#423=DIRECTION('center_axis',(0.,0.,1.));
#424=DIRECTION('ref_axis',(1.,0.,0.));
#425=DIRECTION('center_axis',(0.,0.,1.));
#426=DIRECTION('ref_axis',(1.,0.,0.));
#427=DIRECTION('center_axis',(0.,0.,-1.));
#428=DIRECTION('ref_axis',(1.,0.,0.));
#429=DIRECTION('center_axis',(0.,0.,-1.));
#430=DIRECTION('ref_axis',(1.,0.,0.));
#431=DIRECTION('center_axis',(0.,0.,-1.));
#432=DIRECTION('ref_axis',(1.,0.,0.));
#433=DIRECTION('center_axis',(0.,0.,1.));
#434=DIRECTION('ref_axis',(1.,0.,0.));
#435=DIRECTION('center_axis',(0.,0.,1.));
#436=DIRECTION('ref_axis',(1.,0.,0.));
#437=DIRECTION('center_axis',(0.,0.,1.));
#438=DIRECTION('ref_axis',(1.,0.,0.));
#439=DIRECTION('center_axis',(0.,0.,1.));
#440=DIRECTION('ref_axis',(1.,0.,0.));
#441=DIRECTION('center_axis',(0.,0.,1.));
#442=DIRECTION('ref_axis',(1.,0.,0.));
#443=DIRECTION('center_axis',(0.,0.,1.));
#444=DIRECTION('ref_axis',(1.,0.,0.));
#445=DIRECTION('center_axis',(0.,0.,1.));
#446=DIRECTION('ref_axis',(1.,0.,0.));
#447=DIRECTION('center_axis',(0.,0.,1.));
#448=DIRECTION('ref_axis',(1.,0.,0.));
#449=DIRECTION('center_axis',(0.,0.,1.));
#450=DIRECTION('ref_axis',(1.,0.,0.));
#451=DIRECTION('center_axis',(0.,0.,1.));
#452=DIRECTION('ref_axis',(1.,0.,0.));
#453=DIRECTION('center_axis',(0.,0.,1.));
#454=DIRECTION('ref_axis',(1.,0.,0.));
#455=DIRECTION('center_axis',(0.,0.,1.));
#456=DIRECTION('ref_axis',(1.,0.,0.));
#457=DIRECTION('center_axis',(0.,0.,1.));
#458=DIRECTION('ref_axis',(1.,0.,0.));
#459=DIRECTION('center_axis',(0.,0.,-1.));
#460=DIRECTION('ref_axis',(-1.,0.,0.));
#461=DIRECTION($,(-1.,4.490442E-011,0.));
#462=DIRECTION($,(-0.707106781107184,0.707106781265911,0.));
#463=DIRECTION($,(1.79585E-010,1.,0.));
#464=DIRECTION($,(0.707106781297634,0.707106781075461,0.));
#465=DIRECTION($,(1.,-1.34874E-010,0.));
#466=DIRECTION($,(0.707106781107361,-0.707106781265734,0.));
#467=DIRECTION($,(-8.980884E-011,-1.,0.));
#468=DIRECTION($,(-0.707106781234172,-0.707106781138923,0.));
#469=DIRECTION('center_axis',(-4.489664E-011,-1.,0.));
#470=DIRECTION('ref_axis',(0.,0.,-1.));
#471=DIRECTION($,(0.,0.,1.));
#472=DIRECTION($,(0.,0.,1.));
#473=DIRECTION($,(-1.,6.734027E-011,0.));
#474=DIRECTION($,(-1.,2.246856E-011,0.));
#475=DIRECTION('center_axis',(-0.707106781266048,-0.707106781107048,0.));
#476=DIRECTION('ref_axis',(0.,0.,1.));
#477=DIRECTION($,(0.,0.,1.));
#478=DIRECTION($,(-0.707106781107202,0.707106781265893,0.));
#479=DIRECTION($,(-0.707106781107167,0.707106781265928,0.));
#480=DIRECTION('center_axis',(0.,0.,-1.));
#481=DIRECTION('ref_axis',(-1.,0.,0.));
#482=DIRECTION('center_axis',(0.707106781139048,-0.707106781234048,0.));
#483=DIRECTION('ref_axis',(0.,0.,-1.));
#484=DIRECTION($,(0.,0.,1.));
#485=DIRECTION($,(-0.707106781250218,-0.707106781122877,0.));
#486=DIRECTION($,(-0.707106781218126,-0.707106781154969,0.));
#487=DIRECTION('center_axis',(0.,0.,-1.));
#488=DIRECTION('ref_axis',(-1.,0.,0.));
#489=DIRECTION('center_axis',(-1.,1.795863E-010,0.));
#490=DIRECTION('ref_axis',(0.,0.,1.));
#491=DIRECTION($,(0.,0.,1.));
#492=DIRECTION($,(2.244894E-010,1.,0.));
#493=DIRECTION($,(1.346805E-010,1.,0.));
#494=DIRECTION('center_axis',(0.,0.,-1.));
#495=DIRECTION('ref_axis',(-1.,0.,0.));
#496=DIRECTION('center_axis',(1.,-8.979306E-011,0.));
#497=DIRECTION('ref_axis',(0.,0.,-1.));
#498=DIRECTION($,(0.,0.,1.));
#499=DIRECTION($,(-1.126639E-010,-1.,0.));
#500=DIRECTION($,(-6.695374E-011,-1.,0.));
#501=DIRECTION('center_axis',(-0.707106781075048,0.707106781298047,0.));
#502=DIRECTION('ref_axis',(0.,0.,1.));
#503=DIRECTION($,(0.,0.,1.));
#504=DIRECTION($,(0.707106781320328,0.707106781052767,0.));
#505=DIRECTION($,(0.707106781274939,0.707106781098156,0.));
#506=DIRECTION('center_axis',(0.707106781266048,0.707106781107048,0.));
#507=DIRECTION('ref_axis',(0.,0.,-1.));
#508=DIRECTION($,(0.,0.,1.));
#509=DIRECTION($,(0.707106781087403,-0.707106781285692,0.));
#510=DIRECTION($,(0.70710678112732,-0.707106781245776,0.));
#511=DIRECTION('center_axis',(1.346892E-010,1.,0.));
#512=DIRECTION('ref_axis',(0.,0.,1.));
#513=DIRECTION($,(1.,-1.577291E-010,0.));
#514=DIRECTION($,(1.,-1.120189E-010,0.));
#515=DIRECTION('center_axis',(0.,0.,-1.));
#516=DIRECTION('ref_axis',(-1.,0.,0.));
#517=DIRECTION('center_axis',(0.,0.,-1.));
#518=DIRECTION('ref_axis',(-1.,0.,0.));
#519=DIRECTION('center_axis',(0.,0.,-1.));
#520=DIRECTION('ref_axis',(-1.,0.,0.));
#521=DIRECTION('center_axis',(0.,0.,-1.));
#522=DIRECTION('ref_axis',(-1.,0.,0.));
#523=DIRECTION('center_axis',(0.,0.,-1.));
#524=DIRECTION('ref_axis',(-1.,0.,0.));
#525=DIRECTION('center_axis',(0.,0.,1.));
#526=DIRECTION('ref_axis',(1.,0.,0.));
#527=DIRECTION('center_axis',(0.,0.,1.));
#528=DIRECTION('ref_axis',(1.,0.,0.));
#529=DIRECTION('center_axis',(0.,0.,1.));
#530=DIRECTION('ref_axis',(1.,0.,0.));
#531=CARTESIAN_POINT('',(0.,0.,0.));
#532=CARTESIAN_POINT('Origin',(-4.907523E-010,-4.919993E-010,25.7));
#533=CARTESIAN_POINT('',(-24.0000000004908,-4.919964E-010,25.7));
#534=CARTESIAN_POINT('Origin',(-4.907523E-010,-4.919993E-010,25.7));
#535=CARTESIAN_POINT('',(-24.0000000004908,-4.919964E-010,4.3));
#536=CARTESIAN_POINT('Origin',(-4.907523E-010,-4.919993E-010,4.3));
#537=CARTESIAN_POINT('Origin',(-4.907523E-010,-4.919993E-010,25.7));
#538=CARTESIAN_POINT('',(-21.0000000004908,-4.91996728241722E-010,41.));
#539=CARTESIAN_POINT('Origin',(-4.907523E-010,-4.919993E-010,41.));
#540=CARTESIAN_POINT('',(-21.0000000004908,-4.919968E-010,4.3));
#541=CARTESIAN_POINT('Origin',(-4.907523E-010,-4.919993E-010,4.3));
#542=CARTESIAN_POINT('Origin',(0.,0.,41.));
#543=CARTESIAN_POINT('',(-31.5,-3.85751E-015,79.));
#544=CARTESIAN_POINT('Origin',(0.,0.,79.));
#545=CARTESIAN_POINT('',(-31.5,-3.85751E-015,41.));
#546=CARTESIAN_POINT('Origin',(0.,0.,41.));
#547=CARTESIAN_POINT('Origin',(0.,0.,35.));
#548=CARTESIAN_POINT('',(-37.50000000034,-3.85268233E-007,35.));
#549=CARTESIAN_POINT('',(-26.51642417119,-26.51658441816,35.));
#550=CARTESIAN_POINT('Origin',(0.,0.,35.));
#551=CARTESIAN_POINT('',(-5.781443E-009,-37.50000000034,35.));
#552=CARTESIAN_POINT('Origin',(0.,0.,35.));
#553=CARTESIAN_POINT('',(26.516609914042,-26.51639867523,35.));
#554=CARTESIAN_POINT('Origin',(0.,0.,35.));
#555=CARTESIAN_POINT('',(37.5,-9.184548E-015,35.));
#556=CARTESIAN_POINT('Origin',(0.,0.,35.));
#557=CARTESIAN_POINT('',(26.516666011956,26.516342576049,35.));
#558=CARTESIAN_POINT('Origin',(0.,0.,35.));
#559=CARTESIAN_POINT('',(2.525434E-009,37.500000000349,35.));
#560=CARTESIAN_POINT('Origin',(0.,0.,35.));
#561=CARTESIAN_POINT('',(-26.51650411963,26.516504469846,35.));
#562=CARTESIAN_POINT('Origin',(0.,0.,35.));
#563=CARTESIAN_POINT('Origin',(0.,0.,35.));
#564=CARTESIAN_POINT('',(-37.5,-4.592274E-015,79.));
#565=CARTESIAN_POINT('Origin',(0.,0.,79.));
#566=CARTESIAN_POINT('Origin',(15.53300859047,37.5,25.7));
#567=CARTESIAN_POINT('',(15.53300859047,37.5,25.7));
#568=CARTESIAN_POINT('',(-15.5330085871,37.500000001395,25.7));
#569=CARTESIAN_POINT($,(15.53300859047,37.5,25.7));
#570=CARTESIAN_POINT('',(37.500000003487,15.533008582052,25.7));
#571=CARTESIAN_POINT($,(37.500000003487,15.533008582052,25.7));
#572=CARTESIAN_POINT('',(37.499999997908,-15.53300859552,25.7));
#573=CARTESIAN_POINT($,(37.499999997908,-15.53300859552,25.7));
#574=CARTESIAN_POINT('',(15.533008583736,-37.50000000279,25.7));
#575=CARTESIAN_POINT($,(15.533008583736,-37.50000000279,25.7));
#576=CARTESIAN_POINT('',(-15.53300859383,-37.4999999986,25.7));
#577=CARTESIAN_POINT($,(-15.53300859383,-37.4999999986,25.7));
#578=CARTESIAN_POINT('',(-37.50000000209,-15.53300858542,25.7));
#579=CARTESIAN_POINT($,(-37.50000000209,-15.53300858542,25.7));
#580=CARTESIAN_POINT('',(-37.4999999993,15.533008592154,25.7));
#581=CARTESIAN_POINT($,(-37.4999999993,15.533008592154,25.7));
#582=CARTESIAN_POINT($,(-15.5330085871,37.500000001395,25.7));
#583=CARTESIAN_POINT('Origin',(15.53300859047,37.5,25.7));
#584=CARTESIAN_POINT('',(15.53300859047,37.5,35.));
#585=CARTESIAN_POINT($,(15.53300859047,37.5,25.7));
#586=CARTESIAN_POINT('',(-15.5330085871,37.500000001395,35.));
#587=CARTESIAN_POINT($,(-15.5330085871,37.500000001395,25.7));
#588=CARTESIAN_POINT($,(2.525434E-009,37.500000000349,35.));
#589=CARTESIAN_POINT($,(15.53300859047,37.5,35.));
#590=CARTESIAN_POINT('Origin',(37.500000003487,15.533008582052,25.7));
#591=CARTESIAN_POINT('',(37.500000003487,15.533008582052,35.));
#592=CARTESIAN_POINT($,(37.500000003487,15.533008582052,25.7));
#593=CARTESIAN_POINT($,(26.516666011956,26.516342576049,35.));
#594=CARTESIAN_POINT($,(37.500000003487,15.533008582052,35.));
#595=CARTESIAN_POINT('Origin',(15.53300859047,37.5,35.));
#596=CARTESIAN_POINT('Origin',(-15.5330085871,37.500000001395,25.7));
#597=CARTESIAN_POINT('',(-37.4999999993,15.533008592154,35.));
#598=CARTESIAN_POINT($,(-37.4999999993,15.533008592154,25.7));
#599=CARTESIAN_POINT($,(-26.51650411963,26.516504469846,35.));
#600=CARTESIAN_POINT($,(-15.5330085871,37.500000001395,35.));
#601=CARTESIAN_POINT('Origin',(15.53300859047,37.5,35.));
#602=CARTESIAN_POINT('Origin',(37.499999997908,-15.53300859552,25.7));
#603=CARTESIAN_POINT('',(37.499999997908,-15.53300859552,35.));
#604=CARTESIAN_POINT($,(37.499999997908,-15.53300859552,25.7));
#605=CARTESIAN_POINT($,(37.5,-9.184548E-015,35.));
#606=CARTESIAN_POINT($,(37.499999997908,-15.53300859552,35.));
#607=CARTESIAN_POINT('Origin',(15.53300859047,37.5,35.));
#608=CARTESIAN_POINT('Origin',(-37.4999999993,15.533008592154,25.7));
#609=CARTESIAN_POINT('',(-37.50000000209,-15.53300858542,35.));
#610=CARTESIAN_POINT($,(-37.50000000209,-15.53300858542,25.7));
#611=CARTESIAN_POINT($,(-37.50000000034,-3.85268233E-007,35.));
#612=CARTESIAN_POINT($,(-37.4999999993,15.533008592154,35.));
#613=CARTESIAN_POINT('Origin',(15.533008583736,-37.50000000279,25.7));
#614=CARTESIAN_POINT('',(15.533008583736,-37.50000000279,35.));
#615=CARTESIAN_POINT($,(15.533008583736,-37.50000000279,25.7));
#616=CARTESIAN_POINT($,(26.516609914042,-26.51639867523,35.));
#617=CARTESIAN_POINT($,(15.533008583736,-37.50000000279,35.));
#618=CARTESIAN_POINT('Origin',(-37.50000000209,-15.53300858542,25.7));
#619=CARTESIAN_POINT('',(-15.53300859383,-37.4999999986,35.));
#620=CARTESIAN_POINT($,(-15.53300859383,-37.4999999986,25.7));
#621=CARTESIAN_POINT($,(-26.51642417119,-26.51658441816,35.));
#622=CARTESIAN_POINT($,(-37.50000000209,-15.53300858542,35.));
#623=CARTESIAN_POINT('Origin',(-15.53300859383,-37.4999999986,25.7));
#624=CARTESIAN_POINT($,(-5.781443E-009,-37.50000000034,35.));
#625=CARTESIAN_POINT($,(-15.53300859383,-37.4999999986,35.));
#626=CARTESIAN_POINT('Origin',(15.53300859047,37.5,35.));
#627=CARTESIAN_POINT('Origin',(15.53300859047,37.5,35.));
#628=CARTESIAN_POINT('Origin',(15.53300859047,37.5,35.));
#629=CARTESIAN_POINT('Origin',(15.53300859047,37.5,35.));
#630=CARTESIAN_POINT('Origin',(15.53300859047,37.5,35.));
#631=CARTESIAN_POINT('Origin',(0.,0.,79.));
#632=CARTESIAN_POINT('Origin',(0.,0.,41.));
#633=CARTESIAN_POINT('Origin',(-4.907523E-010,-4.919993E-010,4.3));
#634=UNCERTAINTY_MEASURE_WITH_UNIT(LENGTH_MEASURE(0.01),#636,
'DISTANCE_ACCURACY_VALUE',
'Maximum model space distance between geometric entities at asserted c
onnectivities');
#635=(
GEOMETRIC_REPRESENTATION_CONTEXT(3)
GLOBAL_UNCERTAINTY_ASSIGNED_CONTEXT((#634))
GLOBAL_UNIT_ASSIGNED_CONTEXT((#636,#639,#637))
REPRESENTATION_CONTEXT('','3D')
);
#636=(
LENGTH_UNIT()
NAMED_UNIT(*)
SI_UNIT(.MILLI.,.METRE.)
);
#637=(
NAMED_UNIT(*)
SI_UNIT($,.STERADIAN.)
SOLID_ANGLE_UNIT()
);
#638=DIMENSIONAL_EXPONENTS(0.,0.,0.,0.,0.,0.,0.);
#639=(
CONVERSION_BASED_UNIT('degree',#641)
NAMED_UNIT(#638)
PLANE_ANGLE_UNIT()
);
#640=(
NAMED_UNIT(*)
PLANE_ANGLE_UNIT()
SI_UNIT($,.RADIAN.)
);
#641=PLANE_ANGLE_MEASURE_WITH_UNIT(PLANE_ANGLE_MEASURE(0.01745329252),#640);
#642=SHAPE_DEFINITION_REPRESENTATION(#643,#644);
#643=PRODUCT_DEFINITION_SHAPE('',$,#646);
#644=SHAPE_REPRESENTATION('',(#379),#635);
#645=PRODUCT_DEFINITION_CONTEXT('3D Mechanical Parts',#649,'design');
#646=PRODUCT_DEFINITION('KIFV075063112','KIFV075063112',#647,#645);
#647=PRODUCT_DEFINITION_FORMATION('',$,#651);
#648=APPLICATION_PROTOCOL_DEFINITION('international standard',
'automotive_design',2009,#649);
#649=APPLICATION_CONTEXT(
'Core Data for Automotive Mechanical Design Process');
#650=PRODUCT_CONTEXT('3D Mechanical Parts',#649,'mechanical');
#651=PRODUCT('KIFV075063112','KIFV075063112',$,(#650));
#652=PRESENTATION_STYLE_ASSIGNMENT((#654));
#653=PRESENTATION_STYLE_ASSIGNMENT((#655));
#654=SURFACE_STYLE_USAGE(.BOTH.,#656);
#655=SURFACE_STYLE_USAGE(.BOTH.,#657);
#656=SURFACE_SIDE_STYLE($,(#658));
#657=SURFACE_SIDE_STYLE($,(#659));
#658=SURFACE_STYLE_FILL_AREA(#660);
#659=SURFACE_STYLE_FILL_AREA(#661);
#660=FILL_AREA_STYLE($,(#662));
#661=FILL_AREA_STYLE($,(#663));
#662=FILL_AREA_STYLE_COLOUR($,#664);
#663=FILL_AREA_STYLE_COLOUR($,#665);
#664=COLOUR_RGB('',0.509803921568627,0.509803921568627,0.588235294117647);
#665=COLOUR_RGB('',1.,0.,0.);
ENDSEC;
END-ISO-10303-21;
