ISO-10303-21;
HEADER;
/* Generated by software containing ST-Developer
 * from STEP Tools, Inc. (www.steptools.com) 
 */

FILE_DESCRIPTION(
/* description */ (''),
/* implementation_level */ '2;1');

FILE_NAME(
/* name */ 
'Q:\\Ric010\\FF7\\FIPlastiCAD\\FIP\\Lavoro\\PVC Fittings\\PVC Fittings
 STEP\\TRIV\\TRIV090075.ipt.stp',
/* time_stamp */ '2013-10-01T14:56:41+02:00',
/* author */ ('bfaro'),
/* organization */ (''),
/* preprocessor_version */ 'ST-DEVELOPER v15.2',
/* originating_system */ 'Autodesk Inventor 2014',
/* authorisation */ '');

FILE_SCHEMA (('AUTOMOTIVE_DESIGN { 1 0 10303 214 3 1 1 }'));
ENDSEC;

DATA;
#10=SHAPE_REPRESENTATION_RELATIONSHIP('SRR','None',#451,#11);
#11=ADVANCED_BREP_SHAPE_REPRESENTATION($,(#181),#442);
#12=STYLED_ITEM($,(#459),#181);
#13=PLANE($,#202);
#14=PLANE($,#203);
#15=PLANE($,#204);
#16=PLANE($,#205);
#17=PLANE($,#206);
#18=PLANE($,#207);
#19=FACE_BOUND($,#53,.T.);
#20=FACE_BOUND($,#55,.T.);
#21=FACE_BOUND($,#56,.T.);
#22=FACE_BOUND($,#58,.T.);
#23=FACE_BOUND($,#59,.T.);
#24=FACE_BOUND($,#61,.T.);
#25=FACE_BOUND($,#63,.T.);
#26=FACE_BOUND($,#65,.T.);
#27=FACE_BOUND($,#67,.T.);
#28=FACE_BOUND($,#69,.T.);
#29=FACE_BOUND($,#70,.T.);
#30=FACE_BOUND($,#71,.T.);
#31=FACE_BOUND($,#73,.T.);
#32=FACE_BOUND($,#75,.T.);
#33=FACE_BOUND($,#76,.T.);
#34=FACE_BOUND($,#77,.T.);
#35=FACE_BOUND($,#78,.T.);
#36=FACE_BOUND($,#79,.T.);
#37=B_SPLINE_CURVE_WITH_KNOTS($,3,(#265,#266,#267,#268,#269,#270,#271,#272,
#273,#274,#275,#276,#277,#278,#279,#280,#281,#282,#283,#284,#285,#286,#287,
#288,#289,#290,#291,#292,#293,#294,#295,#296,#297,#298,#299,#300,#301,#302,
#303,#304,#305,#306,#307,#308,#309,#310,#311,#312,#313,#314,#315,#316,#317,
#318,#319,#320,#321,#322,#323,#324,#325,#326,#327,#328,#329,#330),
 .UNSPECIFIED.,.T.,.F.,(4,2,2,2,2,2,2,2,2,2,2,2,2,2,2,2,2,2,2,2,2,2,2,2,
2,2,2,2,2,2,2,2,4),(0.,0.73642480652841,1.47284961305682,2.20927441958523,
2.94569922611364,3.6540219440857,4.36234466205775,5.07066738002981,5.77899009800187,
6.48731281597392,7.19563553394598,7.90395825191804,8.61228096989009,9.34870577641851,
10.0851305829469,10.8215553894753,11.5579801960037,12.2944050025059,13.0308298090081,
13.7672546155103,14.5036794220124,15.2120021399842,15.920324857956,16.6286475759278,
17.3369702938996,18.0452930118714,18.7536157298432,19.461938447815,20.1702611657868,
20.906685972289,21.6431107787911,22.3795355852933,23.1159603917955),
 .UNSPECIFIED.);
#38=B_SPLINE_CURVE_WITH_KNOTS($,3,(#343,#344,#345,#346,#347,#348,#349,#350,
#351,#352,#353,#354,#355,#356,#357,#358,#359,#360),.UNSPECIFIED.,.F.,.F.,
(4,2,2,2,2,2,2,2,4),(14.8607135334844,15.809018787213,16.7573240409416,
17.7056292946702,18.6539345483988,19.5632184863219,20.472502424245,21.3817863621682,
22.2910703000913),.UNSPECIFIED.);
#39=B_SPLINE_CURVE_WITH_KNOTS($,3,(#362,#363,#364,#365,#366,#367,#368,#369,
#370,#371,#372,#373,#374,#375,#376,#377,#378,#379),.UNSPECIFIED.,.F.,.F.,
(4,2,2,2,2,2,2,2,4),(-14.8607135334844,-13.9124082797453,-12.9641030260061,
-12.015797772267,-11.0674925185278,-10.1582085805814,-9.24892464263502,
-8.33964070468861,-7.4303567667422),.UNSPECIFIED.);
#40=B_SPLINE_CURVE_WITH_KNOTS($,3,(#381,#382,#383,#384,#385,#386,#387,#388,
#389,#390,#391,#392,#393,#394,#395,#396,#397,#398),.UNSPECIFIED.,.F.,.F.,
(4,2,2,2,2,2,2,2,4),(22.2910702999561,23.2003542379025,24.1096381758489,
25.0189221137953,25.9282060517417,26.8765113054809,27.82481655922,28.7731218129591,
29.7214270666983),.UNSPECIFIED.);
#41=B_SPLINE_CURVE_WITH_KNOTS($,3,(#399,#400,#401,#402,#403,#404,#405,#406,
#407,#408,#409,#410,#411,#412,#413,#414,#415,#416),.UNSPECIFIED.,.F.,.F.,
(4,2,2,2,2,2,2,2,4),(-7.43035676660694,-6.5210728286838,-5.61178889076065,
-4.7025049528375,-3.79322101491436,-2.84491576118577,-1.89661050745717,
-0.948305253728582,9.76996261670138E-015),.UNSPECIFIED.);
#42=FACE_OUTER_BOUND($,#52,.T.);
#43=FACE_OUTER_BOUND($,#54,.T.);
#44=FACE_OUTER_BOUND($,#57,.T.);
#45=FACE_OUTER_BOUND($,#60,.T.);
#46=FACE_OUTER_BOUND($,#62,.T.);
#47=FACE_OUTER_BOUND($,#64,.T.);
#48=FACE_OUTER_BOUND($,#66,.T.);
#49=FACE_OUTER_BOUND($,#68,.T.);
#50=FACE_OUTER_BOUND($,#72,.T.);
#51=FACE_OUTER_BOUND($,#74,.T.);
#52=EDGE_LOOP($,(#126));
#53=EDGE_LOOP($,(#127));
#54=EDGE_LOOP($,(#128));
#55=EDGE_LOOP($,(#129));
#56=EDGE_LOOP($,(#130));
#57=EDGE_LOOP($,(#131));
#58=EDGE_LOOP($,(#132));
#59=EDGE_LOOP($,(#133,#134,#135,#136));
#60=EDGE_LOOP($,(#137));
#61=EDGE_LOOP($,(#138));
#62=EDGE_LOOP($,(#139,#140,#141,#142));
#63=EDGE_LOOP($,(#143));
#64=EDGE_LOOP($,(#144));
#65=EDGE_LOOP($,(#145));
#66=EDGE_LOOP($,(#146));
#67=EDGE_LOOP($,(#147));
#68=EDGE_LOOP($,(#148));
#69=EDGE_LOOP($,(#149));
#70=EDGE_LOOP($,(#150));
#71=EDGE_LOOP($,(#151));
#72=EDGE_LOOP($,(#152));
#73=EDGE_LOOP($,(#153));
#74=EDGE_LOOP($,(#154));
#75=EDGE_LOOP($,(#155));
#76=EDGE_LOOP($,(#156));
#77=EDGE_LOOP($,(#157));
#78=EDGE_LOOP($,(#158));
#79=EDGE_LOOP($,(#159));
#80=CIRCLE($,#184,35.5);
#81=CIRCLE($,#186,43.);
#82=CIRCLE($,#187,43.);
#83=CIRCLE($,#189,54.5);
#84=CIRCLE($,#190,54.5);
#85=CIRCLE($,#192,45.);
#86=CIRCLE($,#193,45.);
#87=CIRCLE($,#195,45.5);
#88=CIRCLE($,#197,45.);
#89=CIRCLE($,#198,45.);
#90=CIRCLE($,#200,37.5);
#91=CIRCLE($,#201,37.5);
#92=VERTEX_POINT($,#262);
#93=VERTEX_POINT($,#264);
#94=VERTEX_POINT($,#332);
#95=VERTEX_POINT($,#334);
#96=VERTEX_POINT($,#337);
#97=VERTEX_POINT($,#339);
#98=VERTEX_POINT($,#341);
#99=VERTEX_POINT($,#342);
#100=VERTEX_POINT($,#361);
#101=VERTEX_POINT($,#380);
#102=VERTEX_POINT($,#418);
#103=VERTEX_POINT($,#420);
#104=VERTEX_POINT($,#423);
#105=VERTEX_POINT($,#426);
#106=VERTEX_POINT($,#428);
#107=VERTEX_POINT($,#431);
#108=VERTEX_POINT($,#433);
#109=EDGE_CURVE($,#92,#92,#80,.T.);
#110=EDGE_CURVE($,#93,#93,#37,.T.);
#111=EDGE_CURVE($,#94,#94,#81,.T.);
#112=EDGE_CURVE($,#95,#95,#82,.T.);
#113=EDGE_CURVE($,#96,#96,#83,.T.);
#114=EDGE_CURVE($,#97,#97,#84,.T.);
#115=EDGE_CURVE($,#98,#99,#38,.T.);
#116=EDGE_CURVE($,#98,#100,#39,.T.);
#117=EDGE_CURVE($,#100,#101,#40,.T.);
#118=EDGE_CURVE($,#99,#101,#41,.T.);
#119=EDGE_CURVE($,#102,#102,#85,.T.);
#120=EDGE_CURVE($,#103,#103,#86,.T.);
#121=EDGE_CURVE($,#104,#104,#87,.T.);
#122=EDGE_CURVE($,#105,#105,#88,.T.);
#123=EDGE_CURVE($,#106,#106,#89,.T.);
#124=EDGE_CURVE($,#107,#107,#90,.T.);
#125=EDGE_CURVE($,#108,#108,#91,.T.);
#126=ORIENTED_EDGE($,*,*,#109,.F.);
#127=ORIENTED_EDGE($,*,*,#110,.F.);
#128=ORIENTED_EDGE($,*,*,#111,.F.);
#129=ORIENTED_EDGE($,*,*,#112,.F.);
#130=ORIENTED_EDGE($,*,*,#110,.T.);
#131=ORIENTED_EDGE($,*,*,#113,.F.);
#132=ORIENTED_EDGE($,*,*,#114,.T.);
#133=ORIENTED_EDGE($,*,*,#115,.F.);
#134=ORIENTED_EDGE($,*,*,#116,.T.);
#135=ORIENTED_EDGE($,*,*,#117,.T.);
#136=ORIENTED_EDGE($,*,*,#118,.F.);
#137=ORIENTED_EDGE($,*,*,#119,.T.);
#138=ORIENTED_EDGE($,*,*,#120,.F.);
#139=ORIENTED_EDGE($,*,*,#116,.F.);
#140=ORIENTED_EDGE($,*,*,#115,.T.);
#141=ORIENTED_EDGE($,*,*,#118,.T.);
#142=ORIENTED_EDGE($,*,*,#117,.F.);
#143=ORIENTED_EDGE($,*,*,#121,.F.);
#144=ORIENTED_EDGE($,*,*,#122,.T.);
#145=ORIENTED_EDGE($,*,*,#123,.F.);
#146=ORIENTED_EDGE($,*,*,#124,.T.);
#147=ORIENTED_EDGE($,*,*,#125,.F.);
#148=ORIENTED_EDGE($,*,*,#114,.F.);
#149=ORIENTED_EDGE($,*,*,#120,.T.);
#150=ORIENTED_EDGE($,*,*,#112,.T.);
#151=ORIENTED_EDGE($,*,*,#119,.F.);
#152=ORIENTED_EDGE($,*,*,#113,.T.);
#153=ORIENTED_EDGE($,*,*,#122,.F.);
#154=ORIENTED_EDGE($,*,*,#121,.T.);
#155=ORIENTED_EDGE($,*,*,#124,.F.);
#156=ORIENTED_EDGE($,*,*,#111,.T.);
#157=ORIENTED_EDGE($,*,*,#123,.T.);
#158=ORIENTED_EDGE($,*,*,#109,.T.);
#159=ORIENTED_EDGE($,*,*,#125,.T.);
#160=CYLINDRICAL_SURFACE($,#183,35.5);
#161=CYLINDRICAL_SURFACE($,#185,43.);
#162=CYLINDRICAL_SURFACE($,#188,54.5);
#163=CYLINDRICAL_SURFACE($,#191,45.);
#164=CYLINDRICAL_SURFACE($,#194,45.5);
#165=CYLINDRICAL_SURFACE($,#196,45.);
#166=CYLINDRICAL_SURFACE($,#199,37.5000000000001);
#167=ADVANCED_FACE($,(#42,#19),#160,.F.);
#168=ADVANCED_FACE($,(#43,#20,#21),#161,.F.);
#169=ADVANCED_FACE($,(#44,#22,#23),#162,.T.);
#170=ADVANCED_FACE($,(#45,#24),#163,.F.);
#171=ADVANCED_FACE($,(#46,#25),#164,.T.);
#172=ADVANCED_FACE($,(#47,#26),#165,.F.);
#173=ADVANCED_FACE($,(#48,#27),#166,.F.);
#174=ADVANCED_FACE($,(#49,#28),#13,.T.);
#175=ADVANCED_FACE($,(#29,#30),#14,.T.);
#176=ADVANCED_FACE($,(#50,#31),#15,.T.);
#177=ADVANCED_FACE($,(#51,#32),#16,.T.);
#178=ADVANCED_FACE($,(#33,#34),#17,.T.);
#179=ADVANCED_FACE($,(#35,#36),#18,.T.);
#180=CLOSED_SHELL($,(#167,#168,#169,#170,#171,#172,#173,#174,#175,#176,
#177,#178,#179));
#181=MANIFOLD_SOLID_BREP('Solido1',#180);
#182=AXIS2_PLACEMENT_3D('placement',#260,#208,#209);
#183=AXIS2_PLACEMENT_3D($,#261,#210,#211);
#184=AXIS2_PLACEMENT_3D($,#263,#212,#213);
#185=AXIS2_PLACEMENT_3D($,#331,#214,#215);
#186=AXIS2_PLACEMENT_3D($,#333,#216,#217);
#187=AXIS2_PLACEMENT_3D($,#335,#218,#219);
#188=AXIS2_PLACEMENT_3D($,#336,#220,#221);
#189=AXIS2_PLACEMENT_3D($,#338,#222,#223);
#190=AXIS2_PLACEMENT_3D($,#340,#224,#225);
#191=AXIS2_PLACEMENT_3D($,#417,#226,#227);
#192=AXIS2_PLACEMENT_3D($,#419,#228,#229);
#193=AXIS2_PLACEMENT_3D($,#421,#230,#231);
#194=AXIS2_PLACEMENT_3D($,#422,#232,#233);
#195=AXIS2_PLACEMENT_3D($,#424,#234,#235);
#196=AXIS2_PLACEMENT_3D($,#425,#236,#237);
#197=AXIS2_PLACEMENT_3D($,#427,#238,#239);
#198=AXIS2_PLACEMENT_3D($,#429,#240,#241);
#199=AXIS2_PLACEMENT_3D($,#430,#242,#243);
#200=AXIS2_PLACEMENT_3D($,#432,#244,#245);
#201=AXIS2_PLACEMENT_3D($,#434,#246,#247);
#202=AXIS2_PLACEMENT_3D($,#435,#248,#249);
#203=AXIS2_PLACEMENT_3D($,#436,#250,#251);
#204=AXIS2_PLACEMENT_3D($,#437,#252,#253);
#205=AXIS2_PLACEMENT_3D($,#438,#254,#255);
#206=AXIS2_PLACEMENT_3D($,#439,#256,#257);
#207=AXIS2_PLACEMENT_3D($,#440,#258,#259);
#208=DIRECTION('axis',(0.,0.,1.));
#209=DIRECTION('refdir',(1.,0.,0.));
#210=DIRECTION('center_axis',(-1.,0.,-4.48966536904454E-011));
#211=DIRECTION('ref_axis',(-4.48966536904454E-011,0.,1.));
#212=DIRECTION('center_axis',(-1.,0.,-4.489664E-011));
#213=DIRECTION('ref_axis',(-4.48966536904454E-011,0.,1.));
#214=DIRECTION('center_axis',(0.,0.,-1.));
#215=DIRECTION('ref_axis',(-1.,0.,0.));
#216=DIRECTION('center_axis',(0.,0.,-1.));
#217=DIRECTION('ref_axis',(-1.,0.,0.));
#218=DIRECTION('center_axis',(0.,0.,1.));
#219=DIRECTION('ref_axis',(-1.,0.,0.));
#220=DIRECTION('center_axis',(0.,0.,1.));
#221=DIRECTION('ref_axis',(1.,0.,0.));
#222=DIRECTION('center_axis',(0.,0.,1.));
#223=DIRECTION('ref_axis',(1.,0.,0.));
#224=DIRECTION('center_axis',(0.,0.,1.));
#225=DIRECTION('ref_axis',(1.,0.,0.));
#226=DIRECTION('center_axis',(0.,0.,1.));
#227=DIRECTION('ref_axis',(1.,0.,0.));
#228=DIRECTION('center_axis',(0.,0.,1.));
#229=DIRECTION('ref_axis',(1.,0.,0.));
#230=DIRECTION('center_axis',(0.,0.,1.));
#231=DIRECTION('ref_axis',(1.,0.,0.));
#232=DIRECTION('center_axis',(1.,0.,4.489664E-011));
#233=DIRECTION('ref_axis',(4.489664E-011,0.,-1.));
#234=DIRECTION('center_axis',(1.,0.,4.489664E-011));
#235=DIRECTION('ref_axis',(4.489664E-011,0.,-1.));
#236=DIRECTION('center_axis',(0.,0.,1.));
#237=DIRECTION('ref_axis',(1.,0.,0.));
#238=DIRECTION('center_axis',(0.,0.,1.));
#239=DIRECTION('ref_axis',(1.,0.,0.));
#240=DIRECTION('center_axis',(0.,0.,1.));
#241=DIRECTION('ref_axis',(1.,0.,0.));
#242=DIRECTION('center_axis',(1.,1.54029389572675E-014,4.48967584872647E-011));
#243=DIRECTION('ref_axis',(4.48968269968948E-011,0.,-1.));
#244=DIRECTION('center_axis',(1.,0.,4.489664E-011));
#245=DIRECTION('ref_axis',(4.489664E-011,0.,-1.));
#246=DIRECTION('center_axis',(1.,0.,4.489664E-011));
#247=DIRECTION('ref_axis',(4.489664E-011,0.,-1.));
#248=DIRECTION('center_axis',(0.,0.,-1.));
#249=DIRECTION('ref_axis',(-1.,0.,0.));
#250=DIRECTION('center_axis',(0.,0.,-1.));
#251=DIRECTION('ref_axis',(-1.,0.,0.));
#252=DIRECTION('center_axis',(0.,0.,1.));
#253=DIRECTION('ref_axis',(1.,0.,0.));
#254=DIRECTION('center_axis',(1.,0.,4.489664E-011));
#255=DIRECTION('ref_axis',(4.48963533017377E-011,0.,-1.));
#256=DIRECTION('center_axis',(0.,0.,1.));
#257=DIRECTION('ref_axis',(1.,0.,0.));
#258=DIRECTION('center_axis',(1.,0.,4.489664E-011));
#259=DIRECTION('ref_axis',(4.48963533017377E-011,0.,-1.));
#260=CARTESIAN_POINT('',(0.,0.,0.));
#261=CARTESIAN_POINT('Origin',(48.,0.,99.000000002155));
#262=CARTESIAN_POINT('',(48.0000000015938,4.3474961369731E-015,63.500000002155));
#263=CARTESIAN_POINT('Origin',(48.,0.,99.000000002155));
#264=CARTESIAN_POINT('',(24.2641711171018,35.5,99.0000000010893));
#265=CARTESIAN_POINT('Ctrl Pts',(24.2641711171018,35.5,99.0000000010893));
#266=CARTESIAN_POINT('Ctrl Pts',(24.2641711171018,35.5,101.454749356184));
#267=CARTESIAN_POINT('Ctrl Pts',(24.6466570879049,35.2450430977364,103.867443405016));
#268=CARTESIAN_POINT('Ctrl Pts',(25.9708908570825,34.2809508903894,108.524782275139));
#269=CARTESIAN_POINT('Ctrl Pts',(26.9051792957981,33.5717756037969,110.771536534249));
#270=CARTESIAN_POINT('Ctrl Pts',(29.0281613753761,31.7540340074324,115.04102535381));
#271=CARTESIAN_POINT('Ctrl Pts',(30.2160976926683,30.6437322703876,117.065682549973));
#272=CARTESIAN_POINT('Ctrl Pts',(32.6019706659669,28.0920344113357,120.823034056797));
#273=CARTESIAN_POINT('Ctrl Pts',(33.7998860985473,26.6495671593173,122.555014306459));
#274=CARTESIAN_POINT('Ctrl Pts',(35.9824412625856,23.6140586209732,125.590522844874));
#275=CARTESIAN_POINT('Ctrl Pts',(37.054834639461,21.9185288853694,127.01747479172));
#276=CARTESIAN_POINT('Ctrl Pts',(39.0288277118757,18.1723219812283,129.58050876738));
#277=CARTESIAN_POINT('Ctrl Pts',(39.9297676786363,16.1213107334033,130.716610551336));
#278=CARTESIAN_POINT('Ctrl Pts',(41.4207996102131,11.772867902694,132.574390349972));
#279=CARTESIAN_POINT('Ctrl Pts',(42.011971370114,9.47028981374433,133.297691517609));
#280=CARTESIAN_POINT('Ctrl Pts',(42.801774889238,4.7644720548032,134.260712396479));
#281=CARTESIAN_POINT('Ctrl Pts',(43.,2.36107572657352,134.500000001931));
#282=CARTESIAN_POINT('Ctrl Pts',(43.,-2.36107572657352,134.500000001931));
#283=CARTESIAN_POINT('Ctrl Pts',(42.801774889238,-4.76447205480319,134.260712396479));
#284=CARTESIAN_POINT('Ctrl Pts',(42.011971370114,-9.47028981374432,133.297691517609));
#285=CARTESIAN_POINT('Ctrl Pts',(41.4207996102131,-11.772867902694,132.574390349972));
#286=CARTESIAN_POINT('Ctrl Pts',(39.9297676786363,-16.1213107334033,130.716610551336));
#287=CARTESIAN_POINT('Ctrl Pts',(39.0288277118757,-18.1723219812283,129.58050876738));
#288=CARTESIAN_POINT('Ctrl Pts',(37.054834639461,-21.9185288853694,127.01747479172));
#289=CARTESIAN_POINT('Ctrl Pts',(35.9824412625856,-23.6140586209732,125.590522844874));
#290=CARTESIAN_POINT('Ctrl Pts',(33.7998860985473,-26.6495671593173,122.555014306459));
#291=CARTESIAN_POINT('Ctrl Pts',(32.6019706659669,-28.0920344113357,120.823034056797));
#292=CARTESIAN_POINT('Ctrl Pts',(30.2160976926683,-30.6437322703876,117.065682549973));
#293=CARTESIAN_POINT('Ctrl Pts',(29.0281613753761,-31.7540340074324,115.04102535381));
#294=CARTESIAN_POINT('Ctrl Pts',(26.9051792957981,-33.5717756037969,110.771536534249));
#295=CARTESIAN_POINT('Ctrl Pts',(25.9708908570825,-34.2809508903894,108.524782275139));
#296=CARTESIAN_POINT('Ctrl Pts',(24.6466570879049,-35.2450430977364,103.867443405016));
#297=CARTESIAN_POINT('Ctrl Pts',(24.2641711171018,-35.5,101.454749356184));
#298=CARTESIAN_POINT('Ctrl Pts',(24.2641711171018,-35.5,96.5452506460821));
#299=CARTESIAN_POINT('Ctrl Pts',(24.6466570878804,-35.2450430977529,94.1325565973309));
#300=CARTESIAN_POINT('Ctrl Pts',(25.970890857015,-34.2809508904399,89.4752177273826));
#301=CARTESIAN_POINT('Ctrl Pts',(26.9051792957111,-33.5717756038655,87.2284634683653));
#302=CARTESIAN_POINT('Ctrl Pts',(29.0281613752596,-31.7540340075378,82.9589746490065));
#303=CARTESIAN_POINT('Ctrl Pts',(30.2160976925417,-30.6437322705113,80.9343174529517));
#304=CARTESIAN_POINT('Ctrl Pts',(32.6019706658236,-28.0920344115006,77.1769659463445));
#305=CARTESIAN_POINT('Ctrl Pts',(33.7998860983974,-26.6495671595053,75.4449856967914));
#306=CARTESIAN_POINT('Ctrl Pts',(35.9824412624595,-23.6140586211682,72.4094771585259));
#307=CARTESIAN_POINT('Ctrl Pts',(37.0548346393629,-21.9185288855386,70.9825252117369));
#308=CARTESIAN_POINT('Ctrl Pts',(39.0288277118226,-18.1723219813462,68.4194912361912));
#309=CARTESIAN_POINT('Ctrl Pts',(39.9297676786004,-16.1213107334958,67.2833894522949));
#310=CARTESIAN_POINT('Ctrl Pts',(41.4207996102006,-11.7728679027428,65.4256096537622));
#311=CARTESIAN_POINT('Ctrl Pts',(42.0119713701079,-9.47028981377474,64.7023084861704));
#312=CARTESIAN_POINT('Ctrl Pts',(42.8017748892381,-4.7644720548088,63.7392876073641));
#313=CARTESIAN_POINT('Ctrl Pts',(43.,-2.36107572657266,63.5000000019305));
#314=CARTESIAN_POINT('Ctrl Pts',(43.,2.36107572657265,63.5000000019305));
#315=CARTESIAN_POINT('Ctrl Pts',(42.8017748892381,4.7644720548088,63.7392876073641));
#316=CARTESIAN_POINT('Ctrl Pts',(42.0119713701079,9.47028981377474,64.7023084861704));
#317=CARTESIAN_POINT('Ctrl Pts',(41.4207996102006,11.7728679027428,65.4256096537622));
#318=CARTESIAN_POINT('Ctrl Pts',(39.9297676786004,16.1213107334958,67.2833894522949));
#319=CARTESIAN_POINT('Ctrl Pts',(39.0288277118226,18.1723219813462,68.4194912361912));
#320=CARTESIAN_POINT('Ctrl Pts',(37.0548346393629,21.9185288855385,70.9825252117369));
#321=CARTESIAN_POINT('Ctrl Pts',(35.9824412624595,23.6140586211682,72.4094771585258));
#322=CARTESIAN_POINT('Ctrl Pts',(33.7998860983975,26.6495671595053,75.4449856967913));
#323=CARTESIAN_POINT('Ctrl Pts',(32.6019706658236,28.0920344115006,77.1769659463445));
#324=CARTESIAN_POINT('Ctrl Pts',(30.2160976925417,30.6437322705113,80.9343174529516));
#325=CARTESIAN_POINT('Ctrl Pts',(29.0281613752597,31.7540340075378,82.9589746490065));
#326=CARTESIAN_POINT('Ctrl Pts',(26.9051792957111,33.5717756038655,87.2284634683653));
#327=CARTESIAN_POINT('Ctrl Pts',(25.970890857015,34.2809508904399,89.4752177273826));
#328=CARTESIAN_POINT('Ctrl Pts',(24.6466570878804,35.2450430977529,94.1325565973309));
#329=CARTESIAN_POINT('Ctrl Pts',(24.2641711171018,35.5,96.5452506460821));
#330=CARTESIAN_POINT('Ctrl Pts',(24.2641711171018,35.5,99.0000000010893));
#331=CARTESIAN_POINT('Origin',(0.,0.,147.));
#332=CARTESIAN_POINT('',(43.,5.26598123633362E-015,147.));
#333=CARTESIAN_POINT('Origin',(0.,0.,147.));
#334=CARTESIAN_POINT('',(43.,5.26598123633362E-015,51.));
#335=CARTESIAN_POINT('Origin',(0.,0.,51.));
#336=CARTESIAN_POINT('Origin',(0.,0.,0.));
#337=CARTESIAN_POINT('',(-54.5,-6.674105E-015,198.));
#338=CARTESIAN_POINT('Origin',(0.,0.,198.));
#339=CARTESIAN_POINT('',(54.5,-1.334821E-014,0.));
#340=CARTESIAN_POINT('Origin',(0.,0.,0.));
#341=CARTESIAN_POINT('',(30.,-45.5,99.000000001347));
#342=CARTESIAN_POINT('',(54.5,-5.27355936696949E-015,53.5000000024469));
#343=CARTESIAN_POINT('Ctrl Pts',(30.,-45.5,99.0000000013469));
#344=CARTESIAN_POINT('Ctrl Pts',(30.,-45.5,95.8389824889183));
#345=CARTESIAN_POINT('Ctrl Pts',(30.5124138555118,-45.1707444089211,92.7441755450596));
#346=CARTESIAN_POINT('Ctrl Pts',(32.2683951228762,-43.9335204947251,86.7780005604266));
#347=CARTESIAN_POINT('Ctrl Pts',(33.5019343351952,-43.0252613815372,83.9037458606783));
#348=CARTESIAN_POINT('Ctrl Pts',(36.2937552787974,-40.6978639262753,78.4390208132649));
#349=CARTESIAN_POINT('Ctrl Pts',(37.8511856252432,-39.2765313395237,75.8468333125818));
#350=CARTESIAN_POINT('Ctrl Pts',(40.9732362688244,-36.0076669564404,71.0328235100477));
#351=CARTESIAN_POINT('Ctrl Pts',(42.5379868945125,-34.1587461526239,68.8120290665403));
#352=CARTESIAN_POINT('Ctrl Pts',(45.3823740766665,-30.2696666090853,64.9229495231639));
#353=CARTESIAN_POINT('Ctrl Pts',(46.776539584522,-28.0998645631893,63.0960317662526));
#354=CARTESIAN_POINT('Ctrl Pts',(49.3417422493762,-23.3032082758864,59.8125299597832));
#355=CARTESIAN_POINT('Ctrl Pts',(50.5119578570212,-20.6759220567058,58.3559351971896));
#356=CARTESIAN_POINT('Ctrl Pts',(52.4485301305711,-15.1030929291359,55.9729103595397));
#357=CARTESIAN_POINT('Ctrl Pts',(53.2163192582835,-12.1509164598565,55.0443877878809));
#358=CARTESIAN_POINT('Ctrl Pts',(54.2423161203858,-6.11494466285556,53.807654767287));
#359=CARTESIAN_POINT('Ctrl Pts',(54.5,-3.03094645974382,53.5000000024469));
#360=CARTESIAN_POINT('Ctrl Pts',(54.5,0.,53.5000000024469));
#361=CARTESIAN_POINT('',(54.5,-1.334821E-014,144.50000000244));
#362=CARTESIAN_POINT('Ctrl Pts',(30.,-45.5,99.0000000013469));
#363=CARTESIAN_POINT('Ctrl Pts',(30.,-45.5,102.161017513811));
#364=CARTESIAN_POINT('Ctrl Pts',(30.5124138555196,-45.1707444089157,105.255824457708));
#365=CARTESIAN_POINT('Ctrl Pts',(32.2683951228703,-43.9335204947292,111.22199944245));
#366=CARTESIAN_POINT('Ctrl Pts',(33.5019343351695,-43.0252613815557,114.096254142268));
#367=CARTESIAN_POINT('Ctrl Pts',(36.2937552787199,-40.6978639263429,119.560979189854));
#368=CARTESIAN_POINT('Ctrl Pts',(37.8511856251337,-39.2765313396263,122.153166690637));
#369=CARTESIAN_POINT('Ctrl Pts',(40.9732362686575,-36.0076669566271,126.967176493386));
#370=CARTESIAN_POINT('Ctrl Pts',(42.5379868943203,-34.1587461528598,129.187970937008));
#371=CARTESIAN_POINT('Ctrl Pts',(45.382374076463,-30.2696666093895,133.077050480641));
#372=CARTESIAN_POINT('Ctrl Pts',(46.7765395843316,-28.0998645635067,134.9039682377));
#373=CARTESIAN_POINT('Ctrl Pts',(49.3417422492237,-23.30320827621,138.187470044456));
#374=CARTESIAN_POINT('Ctrl Pts',(50.5119578568934,-20.6759220570221,139.644064807187));
#375=CARTESIAN_POINT('Ctrl Pts',(52.4485301304935,-15.1030929294108,142.027089645076));
#376=CARTESIAN_POINT('Ctrl Pts',(53.2163192582316,-12.1509164600968,142.955612216835));
#377=CARTESIAN_POINT('Ctrl Pts',(54.2423161203727,-6.11494466299721,144.192345237568));
#378=CARTESIAN_POINT('Ctrl Pts',(54.5,-3.03094645982137,144.500000002447));
#379=CARTESIAN_POINT('Ctrl Pts',(54.5,-6.38378239159465E-015,144.500000002447));
#380=CARTESIAN_POINT('',(30.,45.5,99.000000001347));
#381=CARTESIAN_POINT('Ctrl Pts',(54.5,7.21644966006352E-015,144.500000002447));
#382=CARTESIAN_POINT('Ctrl Pts',(54.5,3.03094645982137,144.500000002447));
#383=CARTESIAN_POINT('Ctrl Pts',(54.2423161203728,6.11494466299719,144.192345237568));
#384=CARTESIAN_POINT('Ctrl Pts',(53.2163192582316,12.1509164600968,142.955612216835));
#385=CARTESIAN_POINT('Ctrl Pts',(52.4485301304935,15.1030929294108,142.027089645076));
#386=CARTESIAN_POINT('Ctrl Pts',(50.5119578568933,20.6759220570222,139.644064807187));
#387=CARTESIAN_POINT('Ctrl Pts',(49.3417422492237,23.30320827621,138.187470044456));
#388=CARTESIAN_POINT('Ctrl Pts',(46.7765395843316,28.0998645635067,134.9039682377));
#389=CARTESIAN_POINT('Ctrl Pts',(45.382374076463,30.2696666093895,133.077050480641));
#390=CARTESIAN_POINT('Ctrl Pts',(42.5379868943203,34.1587461528598,129.187970937008));
#391=CARTESIAN_POINT('Ctrl Pts',(40.9732362686575,36.0076669566271,126.967176493386));
#392=CARTESIAN_POINT('Ctrl Pts',(37.8511856251337,39.2765313396263,122.153166690637));
#393=CARTESIAN_POINT('Ctrl Pts',(36.2937552787199,40.6978639263429,119.560979189854));
#394=CARTESIAN_POINT('Ctrl Pts',(33.5019343351695,43.0252613815557,114.096254142268));
#395=CARTESIAN_POINT('Ctrl Pts',(32.2683951228703,43.9335204947292,111.22199944245));
#396=CARTESIAN_POINT('Ctrl Pts',(30.5124138555196,45.1707444089157,105.255824457708));
#397=CARTESIAN_POINT('Ctrl Pts',(30.,45.5,102.161017513811));
#398=CARTESIAN_POINT('Ctrl Pts',(30.,45.5,99.0000000013469));
#399=CARTESIAN_POINT('Ctrl Pts',(54.5,-1.0547118733939E-014,53.5000000024469));
#400=CARTESIAN_POINT('Ctrl Pts',(54.5,3.03094645974381,53.5000000024469));
#401=CARTESIAN_POINT('Ctrl Pts',(54.2423161203858,6.11494466285555,53.807654767287));
#402=CARTESIAN_POINT('Ctrl Pts',(53.2163192582835,12.1509164598565,55.0443877878809));
#403=CARTESIAN_POINT('Ctrl Pts',(52.4485301305711,15.1030929291359,55.9729103595397));
#404=CARTESIAN_POINT('Ctrl Pts',(50.5119578570212,20.6759220567058,58.3559351971896));
#405=CARTESIAN_POINT('Ctrl Pts',(49.3417422493762,23.3032082758864,59.8125299597832));
#406=CARTESIAN_POINT('Ctrl Pts',(46.776539584522,28.0998645631893,63.0960317662526));
#407=CARTESIAN_POINT('Ctrl Pts',(45.3823740766665,30.2696666090853,64.9229495231639));
#408=CARTESIAN_POINT('Ctrl Pts',(42.5379868945125,34.1587461526239,68.8120290665403));
#409=CARTESIAN_POINT('Ctrl Pts',(40.9732362688244,36.0076669564404,71.0328235100477));
#410=CARTESIAN_POINT('Ctrl Pts',(37.8511856252432,39.2765313395237,75.8468333125818));
#411=CARTESIAN_POINT('Ctrl Pts',(36.2937552787974,40.6978639262753,78.4390208132649));
#412=CARTESIAN_POINT('Ctrl Pts',(33.5019343351952,43.0252613815372,83.9037458606782));
#413=CARTESIAN_POINT('Ctrl Pts',(32.2683951228762,43.9335204947251,86.7780005604266));
#414=CARTESIAN_POINT('Ctrl Pts',(30.5124138555117,45.1707444089212,92.7441755450595));
#415=CARTESIAN_POINT('Ctrl Pts',(30.,45.5,95.8389824889183));
#416=CARTESIAN_POINT('Ctrl Pts',(30.,45.5,99.0000000013469));
#417=CARTESIAN_POINT('Origin',(0.,0.,25.5));
#418=CARTESIAN_POINT('',(-45.,-5.510729E-015,51.));
#419=CARTESIAN_POINT('Origin',(0.,0.,51.));
#420=CARTESIAN_POINT('',(-45.,-5.510729E-015,0.));
#421=CARTESIAN_POINT('Origin',(0.,0.,0.));
#422=CARTESIAN_POINT('Origin',(0.,0.,99.));
#423=CARTESIAN_POINT('',(91.9999999979572,-5.571959E-015,144.500000004131));
#424=CARTESIAN_POINT('Origin',(92.,0.,99.00000000413));
#425=CARTESIAN_POINT('Origin',(0.,0.,172.5));
#426=CARTESIAN_POINT('',(-45.,-5.510729E-015,198.));
#427=CARTESIAN_POINT('Origin',(0.,0.,198.));
#428=CARTESIAN_POINT('',(-45.,-5.510729E-015,147.));
#429=CARTESIAN_POINT('Origin',(0.,0.,147.));
#430=CARTESIAN_POINT('Origin',(70.,0.,99.0000000031428));
#431=CARTESIAN_POINT('',(91.9999999983164,-4.592274E-015,136.50000000413));
#432=CARTESIAN_POINT('Origin',(92.,0.,99.00000000413));
#433=CARTESIAN_POINT('',(47.9999999983164,-4.592274E-015,136.500000002155));
#434=CARTESIAN_POINT('Origin',(48.,0.,99.000000002155));
#435=CARTESIAN_POINT('Origin',(0.,0.,0.));
#436=CARTESIAN_POINT('Origin',(0.,0.,51.));
#437=CARTESIAN_POINT('Origin',(0.,0.,198.));
#438=CARTESIAN_POINT('Origin',(92.,0.,99.00000000413));
#439=CARTESIAN_POINT('Origin',(0.,0.,147.));
#440=CARTESIAN_POINT('Origin',(48.,0.,99.000000002155));
#441=UNCERTAINTY_MEASURE_WITH_UNIT(LENGTH_MEASURE(0.01),#443,
'DISTANCE_ACCURACY_VALUE',
'Maximum model space distance between geometric entities at asserted c
onnectivities');
#442=(
GEOMETRIC_REPRESENTATION_CONTEXT(3)
GLOBAL_UNCERTAINTY_ASSIGNED_CONTEXT((#441))
GLOBAL_UNIT_ASSIGNED_CONTEXT((#443,#446,#444))
REPRESENTATION_CONTEXT('','3D')
);
#443=(
LENGTH_UNIT()
NAMED_UNIT(*)
SI_UNIT(.MILLI.,.METRE.)
);
#444=(
NAMED_UNIT(*)
SI_UNIT($,.STERADIAN.)
SOLID_ANGLE_UNIT()
);
#445=DIMENSIONAL_EXPONENTS(0.,0.,0.,0.,0.,0.,0.);
#446=(
CONVERSION_BASED_UNIT('degree',#448)
NAMED_UNIT(#445)
PLANE_ANGLE_UNIT()
);
#447=(
NAMED_UNIT(*)
PLANE_ANGLE_UNIT()
SI_UNIT($,.RADIAN.)
);
#448=PLANE_ANGLE_MEASURE_WITH_UNIT(PLANE_ANGLE_MEASURE(0.01745329252),#447);
#449=SHAPE_DEFINITION_REPRESENTATION(#450,#451);
#450=PRODUCT_DEFINITION_SHAPE('',$,#453);
#451=SHAPE_REPRESENTATION('',(#182),#442);
#452=PRODUCT_DEFINITION_CONTEXT('3D Mechanical Parts',#456,'design');
#453=PRODUCT_DEFINITION('TRIV090075','TRIV090075',#454,#452);
#454=PRODUCT_DEFINITION_FORMATION('',$,#458);
#455=APPLICATION_PROTOCOL_DEFINITION('international standard',
'automotive_design',2009,#456);
#456=APPLICATION_CONTEXT(
'Core Data for Automotive Mechanical Design Process');
#457=PRODUCT_CONTEXT('3D Mechanical Parts',#456,'mechanical');
#458=PRODUCT('TRIV090075','TRIV090075',$,(#457));
#459=PRESENTATION_STYLE_ASSIGNMENT((#460));
#460=SURFACE_STYLE_USAGE(.BOTH.,#461);
#461=SURFACE_SIDE_STYLE($,(#462));
#462=SURFACE_STYLE_FILL_AREA(#463);
#463=FILL_AREA_STYLE($,(#464));
#464=FILL_AREA_STYLE_COLOUR($,#465);
#465=COLOUR_RGB('',0.509803921568627,0.509803921568627,0.588235294117647);
ENDSEC;
END-ISO-10303-21;
