ISO-10303-21;
HEADER;
FILE_DESCRIPTION( ( '' ), '1' );
FILE_NAME( '//se01002/users/anro/AGRU_3M705120017_PE-RC_Mineline_II_Mineline_II_Rohr_5m_1200x71_1_SDR17__ISO_S-8_05.stp', '2017-12-12T08:25:07', ( '' ), ( '' ), ' ', ' ', ' ' );
FILE_SCHEMA( ( 'automotive_design' ) );
ENDSEC;
DATA;
#1 = MECHANICAL_DESIGN_GEOMETRIC_PRESENTATION_REPRESENTATION( ' ', ( #10, #11, #12, #13, #14, #15, #16, #17, #18, #19, #20, #21, #22, #23, #24, #25, #26, #27, #28, #29, #30, #31, #32, #33, #34, #35, #36 ), #6 );
#2 = PRODUCT_DEFINITION_CONTEXT( '', #37, 'design' );
#3 = APPLICATION_PROTOCOL_DEFINITION( 'INTERNATIONAL STANDARD', 'automotive_design', 1994, #37 );
#4 = PRODUCT_CATEGORY_RELATIONSHIP( 'NONE', 'NONE', #38, #39 );
#5 = SHAPE_DEFINITION_REPRESENTATION( #40, #41 );
#6 =  ( GEOMETRIC_REPRESENTATION_CONTEXT( 3 )GLOBAL_UNCERTAINTY_ASSIGNED_CONTEXT( ( #44 ) )GLOBAL_UNIT_ASSIGNED_CONTEXT( ( #46, #47, #48 ) )REPRESENTATION_CONTEXT( 'NONE', 'WORKSPACE' ) );
#10 = STYLED_ITEM( '', ( #50 ), #51 );
#11 = STYLED_ITEM( '', ( #52 ), #53 );
#12 = STYLED_ITEM( '', ( #54 ), #55 );
#13 = STYLED_ITEM( '', ( #56 ), #57 );
#14 = STYLED_ITEM( '', ( #58 ), #59 );
#15 = STYLED_ITEM( '', ( #60 ), #61 );
#16 = STYLED_ITEM( '', ( #62 ), #63 );
#17 = STYLED_ITEM( '', ( #64 ), #65 );
#18 = STYLED_ITEM( '', ( #66 ), #67 );
#19 = STYLED_ITEM( '', ( #68 ), #69 );
#20 = STYLED_ITEM( '', ( #70 ), #71 );
#21 = STYLED_ITEM( '', ( #72 ), #73 );
#22 = STYLED_ITEM( '', ( #74 ), #75 );
#23 = STYLED_ITEM( '', ( #76 ), #77 );
#24 = STYLED_ITEM( '', ( #78 ), #79 );
#25 = STYLED_ITEM( '', ( #80 ), #81 );
#26 = STYLED_ITEM( '', ( #82 ), #83 );
#27 = STYLED_ITEM( '', ( #84 ), #85 );
#28 = STYLED_ITEM( '', ( #86 ), #87 );
#29 = STYLED_ITEM( '', ( #88 ), #89 );
#30 = STYLED_ITEM( '', ( #90 ), #91 );
#31 = STYLED_ITEM( '', ( #92 ), #93 );
#32 = STYLED_ITEM( '', ( #94 ), #95 );
#33 = STYLED_ITEM( '', ( #96 ), #97 );
#34 = STYLED_ITEM( '', ( #98 ), #99 );
#35 = STYLED_ITEM( '', ( #100 ), #101 );
#36 = STYLED_ITEM( '', ( #102 ), #103 );
#37 = APPLICATION_CONTEXT( ' ' );
#38 = PRODUCT_CATEGORY( 'part', 'NONE' );
#39 = PRODUCT_RELATED_PRODUCT_CATEGORY( 'detail', ' ', ( #104 ) );
#40 = PRODUCT_DEFINITION_SHAPE( 'NONE', 'NONE', #105 );
#41 = ADVANCED_BREP_SHAPE_REPRESENTATION( '1', ( #75, #106 ), #6 );
#44 = UNCERTAINTY_MEASURE_WITH_UNIT( LENGTH_MEASURE( 1.00000000000000E-006 ), #46, '', '' );
#46 =  ( CONVERSION_BASED_UNIT( 'MILLIMETRE', #109 )LENGTH_UNIT(  )NAMED_UNIT( #112 ) );
#47 =  ( NAMED_UNIT( #114 )PLANE_ANGLE_UNIT(  )SI_UNIT( $, .RADIAN. ) );
#48 =  ( NAMED_UNIT( #114 )SOLID_ANGLE_UNIT(  )SI_UNIT( $, .STERADIAN. ) );
#50 = PRESENTATION_STYLE_ASSIGNMENT( ( #120 ) );
#51 = EDGE_CURVE( '', #103, #101, #121, .T. );
#52 = PRESENTATION_STYLE_ASSIGNMENT( ( #122 ) );
#53 = ADVANCED_FACE( '', ( #123 ), #124, .T. );
#54 = PRESENTATION_STYLE_ASSIGNMENT( ( #125 ) );
#55 = EDGE_CURVE( '', #87, #65, #126, .T. );
#56 = PRESENTATION_STYLE_ASSIGNMENT( ( #127 ) );
#57 = EDGE_CURVE( '', #65, #79, #128, .T. );
#58 = PRESENTATION_STYLE_ASSIGNMENT( ( #129 ) );
#59 = EDGE_CURVE( '', #101, #95, #130, .T. );
#60 = PRESENTATION_STYLE_ASSIGNMENT( ( #131 ) );
#61 = EDGE_CURVE( '', #89, #87, #132, .T. );
#62 = PRESENTATION_STYLE_ASSIGNMENT( ( #133 ) );
#63 = ADVANCED_FACE( '', ( #134 ), #135, .T. );
#64 = PRESENTATION_STYLE_ASSIGNMENT( ( #136 ) );
#65 = VERTEX_POINT( '', #137 );
#66 = PRESENTATION_STYLE_ASSIGNMENT( ( #138 ) );
#67 = VERTEX_POINT( '', #139 );
#68 = PRESENTATION_STYLE_ASSIGNMENT( ( #140 ) );
#69 = EDGE_CURVE( '', #79, #89, #141, .T. );
#70 = PRESENTATION_STYLE_ASSIGNMENT( ( #142 ) );
#71 = EDGE_CURVE( '', #95, #67, #143, .T. );
#72 = PRESENTATION_STYLE_ASSIGNMENT( ( #144 ) );
#73 = ADVANCED_FACE( '', ( #145 ), #146, .F. );
#74 = PRESENTATION_STYLE_ASSIGNMENT( ( #147 ) );
#75 = MANIFOLD_SOLID_BREP( '1', #148 );
#76 = PRESENTATION_STYLE_ASSIGNMENT( ( #149 ) );
#77 = ADVANCED_FACE( '', ( #150 ), #151, .F. );
#78 = PRESENTATION_STYLE_ASSIGNMENT( ( #152 ) );
#79 = VERTEX_POINT( '', #153 );
#80 = PRESENTATION_STYLE_ASSIGNMENT( ( #154 ) );
#81 = EDGE_CURVE( '', #67, #95, #155, .T. );
#82 = PRESENTATION_STYLE_ASSIGNMENT( ( #156 ) );
#83 = EDGE_CURVE( '', #67, #103, #157, .T. );
#84 = PRESENTATION_STYLE_ASSIGNMENT( ( #158 ) );
#85 = EDGE_CURVE( '', #89, #79, #159, .T. );
#86 = PRESENTATION_STYLE_ASSIGNMENT( ( #160 ) );
#87 = VERTEX_POINT( '', #161 );
#88 = PRESENTATION_STYLE_ASSIGNMENT( ( #162 ) );
#89 = VERTEX_POINT( '', #163 );
#90 = PRESENTATION_STYLE_ASSIGNMENT( ( #164 ) );
#91 = ADVANCED_FACE( '', ( #165, #166 ), #167, .F. );
#92 = PRESENTATION_STYLE_ASSIGNMENT( ( #168 ) );
#93 = ADVANCED_FACE( '', ( #169, #170 ), #171, .T. );
#94 = PRESENTATION_STYLE_ASSIGNMENT( ( #172 ) );
#95 = VERTEX_POINT( '', #173 );
#96 = PRESENTATION_STYLE_ASSIGNMENT( ( #174 ) );
#97 = EDGE_CURVE( '', #101, #103, #175, .T. );
#98 = PRESENTATION_STYLE_ASSIGNMENT( ( #176 ) );
#99 = EDGE_CURVE( '', #65, #87, #177, .T. );
#100 = PRESENTATION_STYLE_ASSIGNMENT( ( #178 ) );
#101 = VERTEX_POINT( '', #179 );
#102 = PRESENTATION_STYLE_ASSIGNMENT( ( #180 ) );
#103 = VERTEX_POINT( '', #181 );
#104 = PRODUCT( '1', '1', 'PART-1-DESC', ( #182 ) );
#105 = PRODUCT_DEFINITION( 'NONE', 'NONE', #183, #2 );
#106 = AXIS2_PLACEMENT_3D( '', #184, #185, #186 );
#109 = LENGTH_MEASURE_WITH_UNIT( LENGTH_MEASURE( 1.00000000000000 ), #187 );
#112 = DIMENSIONAL_EXPONENTS( 1.00000000000000, 0.000000000000000, 0.000000000000000, 0.000000000000000, 0.000000000000000, 0.000000000000000, 0.000000000000000 );
#114 = DIMENSIONAL_EXPONENTS( 0.000000000000000, 0.000000000000000, 0.000000000000000, 0.000000000000000, 0.000000000000000, 0.000000000000000, 0.000000000000000 );
#120 = CURVE_STYLE( '', #188, POSITIVE_LENGTH_MEASURE( 1.00000000000000E-006 ), #189 );
#121 = CIRCLE( '', #190, 528.900000000000 );
#122 = SURFACE_STYLE_USAGE( .BOTH., #191 );
#123 = FACE_OUTER_BOUND( '', #192, .T. );
#124 = CYLINDRICAL_SURFACE( '', #193, 600.000000000000 );
#125 = CURVE_STYLE( '', #194, POSITIVE_LENGTH_MEASURE( 1.00000000000000E-006 ), #195 );
#126 = CIRCLE( '', #196, 600.000000000000 );
#127 = CURVE_STYLE( '', #197, POSITIVE_LENGTH_MEASURE( 1.00000000000000E-006 ), #198 );
#128 = LINE( '', #199, #200 );
#129 = CURVE_STYLE( '', #201, POSITIVE_LENGTH_MEASURE( 1.00000000000000E-006 ), #202 );
#130 = LINE( '', #203, #204 );
#131 = CURVE_STYLE( '', #205, POSITIVE_LENGTH_MEASURE( 1.00000000000000E-006 ), #206 );
#132 = LINE( '', #207, #208 );
#133 = SURFACE_STYLE_USAGE( .BOTH., #209 );
#134 = FACE_OUTER_BOUND( '', #210, .T. );
#135 = CYLINDRICAL_SURFACE( '', #211, 600.000000000000 );
#136 = POINT_STYLE( ' ', #212, POSITIVE_LENGTH_MEASURE( 1.00000000000000E-006 ), #213 );
#137 = CARTESIAN_POINT( '', ( 5000.00000000000, 7.34763812293426E-014, 600.000000000000 ) );
#138 = POINT_STYLE( ' ', #214, POSITIVE_LENGTH_MEASURE( 1.00000000000000E-006 ), #215 );
#139 = CARTESIAN_POINT( '', ( 5000.00000000000, 6.47694300536655E-014, 528.900000000000 ) );
#140 = CURVE_STYLE( '', #216, POSITIVE_LENGTH_MEASURE( 1.00000000000000E-006 ), #217 );
#141 = CIRCLE( '', #218, 600.000000000000 );
#142 = CURVE_STYLE( '', #219, POSITIVE_LENGTH_MEASURE( 1.00000000000000E-006 ), #220 );
#143 = CIRCLE( '', #221, 528.900000000000 );
#144 = SURFACE_STYLE_USAGE( .BOTH., #222 );
#145 = FACE_OUTER_BOUND( '', #223, .T. );
#146 = CYLINDRICAL_SURFACE( '', #224, 528.900000000000 );
#147 = SURFACE_STYLE_USAGE( .BOTH., #225 );
#148 = CLOSED_SHELL( '', ( #53, #73, #77, #63, #93, #91 ) );
#149 = SURFACE_STYLE_USAGE( .BOTH., #226 );
#150 = FACE_OUTER_BOUND( '', #227, .T. );
#151 = CYLINDRICAL_SURFACE( '', #228, 528.900000000000 );
#152 = POINT_STYLE( ' ', #229, POSITIVE_LENGTH_MEASURE( 1.00000000000000E-006 ), #230 );
#153 = CARTESIAN_POINT( '', ( 0.000000000000000, 7.34763812293426E-014, 600.000000000000 ) );
#154 = CURVE_STYLE( '', #231, POSITIVE_LENGTH_MEASURE( 1.00000000000000E-006 ), #232 );
#155 = CIRCLE( '', #233, 528.900000000000 );
#156 = CURVE_STYLE( '', #234, POSITIVE_LENGTH_MEASURE( 1.00000000000000E-006 ), #235 );
#157 = LINE( '', #236, #237 );
#158 = CURVE_STYLE( '', #238, POSITIVE_LENGTH_MEASURE( 1.00000000000000E-006 ), #239 );
#159 = CIRCLE( '', #240, 600.000000000000 );
#160 = POINT_STYLE( ' ', #241, POSITIVE_LENGTH_MEASURE( 1.00000000000000E-006 ), #242 );
#161 = CARTESIAN_POINT( '', ( 5000.00000000000, 0.000000000000000, -600.000000000000 ) );
#162 = POINT_STYLE( ' ', #243, POSITIVE_LENGTH_MEASURE( 1.00000000000000E-006 ), #244 );
#163 = CARTESIAN_POINT( '', ( 0.000000000000000, 0.000000000000000, -600.000000000000 ) );
#164 = SURFACE_STYLE_USAGE( .BOTH., #245 );
#165 = FACE_OUTER_BOUND( '', #246, .T. );
#166 = FACE_BOUND( '', #247, .T. );
#167 = PLANE( '', #248 );
#168 = SURFACE_STYLE_USAGE( .BOTH., #249 );
#169 = FACE_OUTER_BOUND( '', #250, .T. );
#170 = FACE_BOUND( '', #251, .T. );
#171 = PLANE( '', #252 );
#172 = POINT_STYLE( ' ', #253, POSITIVE_LENGTH_MEASURE( 1.00000000000000E-006 ), #254 );
#173 = CARTESIAN_POINT( '', ( 5000.00000000000, 0.000000000000000, -528.900000000000 ) );
#174 = CURVE_STYLE( '', #255, POSITIVE_LENGTH_MEASURE( 1.00000000000000E-006 ), #256 );
#175 = CIRCLE( '', #257, 528.900000000000 );
#176 = CURVE_STYLE( '', #258, POSITIVE_LENGTH_MEASURE( 1.00000000000000E-006 ), #259 );
#177 = CIRCLE( '', #260, 600.000000000000 );
#178 = POINT_STYLE( ' ', #261, POSITIVE_LENGTH_MEASURE( 1.00000000000000E-006 ), #262 );
#179 = CARTESIAN_POINT( '', ( 0.000000000000000, 0.000000000000000, -528.900000000000 ) );
#180 = POINT_STYLE( ' ', #263, POSITIVE_LENGTH_MEASURE( 1.00000000000000E-006 ), #264 );
#181 = CARTESIAN_POINT( '', ( 0.000000000000000, 6.47694300536655E-014, 528.900000000000 ) );
#182 = PRODUCT_CONTEXT( '', #37, 'mechanical' );
#183 = PRODUCT_DEFINITION_FORMATION_WITH_SPECIFIED_SOURCE( ' ', 'NONE', #104, .NOT_KNOWN. );
#184 = CARTESIAN_POINT( '', ( 0.000000000000000, 0.000000000000000, 0.000000000000000 ) );
#185 = DIRECTION( '', ( 0.000000000000000, 0.000000000000000, 1.00000000000000 ) );
#186 = DIRECTION( '', ( 1.00000000000000, 0.000000000000000, 0.000000000000000 ) );
#187 =  ( NAMED_UNIT( #112 )LENGTH_UNIT(  )SI_UNIT( .MILLI., .METRE. ) );
#188 = DRAUGHTING_PRE_DEFINED_CURVE_FONT( 'continuous' );
#189 = COLOUR_RGB( '', 0.689999997615810, 0.689999997615810, 0.689999997615810 );
#190 = AXIS2_PLACEMENT_3D( '', #266, #267, #268 );
#191 = SURFACE_SIDE_STYLE( '', ( #269 ) );
#192 = EDGE_LOOP( '', ( #270, #271, #272, #273 ) );
#193 = AXIS2_PLACEMENT_3D( '', #274, #275, #276 );
#194 = DRAUGHTING_PRE_DEFINED_CURVE_FONT( 'continuous' );
#195 = COLOUR_RGB( '', 0.689999997615810, 0.689999997615810, 0.689999997615810 );
#196 = AXIS2_PLACEMENT_3D( '', #277, #278, #279 );
#197 = DRAUGHTING_PRE_DEFINED_CURVE_FONT( 'continuous' );
#198 = COLOUR_RGB( '', 0.689999997615810, 0.689999997615810, 0.689999997615810 );
#199 = CARTESIAN_POINT( '', ( 0.000000000000000, 7.34763812293426E-014, 600.000000000000 ) );
#200 = VECTOR( '', #280, 1.00000000000000 );
#201 = DRAUGHTING_PRE_DEFINED_CURVE_FONT( 'continuous' );
#202 = COLOUR_RGB( '', 0.689999997615810, 0.689999997615810, 0.689999997615810 );
#203 = CARTESIAN_POINT( '', ( 0.000000000000000, -6.47694300536655E-014, -528.900000000000 ) );
#204 = VECTOR( '', #281, 1.00000000000000 );
#205 = DRAUGHTING_PRE_DEFINED_CURVE_FONT( 'continuous' );
#206 = COLOUR_RGB( '', 0.689999997615810, 0.689999997615810, 0.689999997615810 );
#207 = CARTESIAN_POINT( '', ( 0.000000000000000, -7.34763812293426E-014, -600.000000000000 ) );
#208 = VECTOR( '', #282, 1.00000000000000 );
#209 = SURFACE_SIDE_STYLE( '', ( #283 ) );
#210 = EDGE_LOOP( '', ( #284, #285, #286, #287 ) );
#211 = AXIS2_PLACEMENT_3D( '', #288, #289, #290 );
#212 = PRE_DEFINED_MARKER( '' );
#213 = COLOUR_RGB( '', 0.689999997615810, 0.689999997615810, 0.689999997615810 );
#214 = PRE_DEFINED_MARKER( '' );
#215 = COLOUR_RGB( '', 0.689999997615810, 0.689999997615810, 0.689999997615810 );
#216 = DRAUGHTING_PRE_DEFINED_CURVE_FONT( 'continuous' );
#217 = COLOUR_RGB( '', 0.689999997615810, 0.689999997615810, 0.689999997615810 );
#218 = AXIS2_PLACEMENT_3D( '', #291, #292, #293 );
#219 = DRAUGHTING_PRE_DEFINED_CURVE_FONT( 'continuous' );
#220 = COLOUR_RGB( '', 0.689999997615810, 0.689999997615810, 0.689999997615810 );
#221 = AXIS2_PLACEMENT_3D( '', #294, #295, #296 );
#222 = SURFACE_SIDE_STYLE( '', ( #297 ) );
#223 = EDGE_LOOP( '', ( #298, #299, #300, #301 ) );
#224 = AXIS2_PLACEMENT_3D( '', #302, #303, #304 );
#225 = SURFACE_SIDE_STYLE( '', ( #305 ) );
#226 = SURFACE_SIDE_STYLE( '', ( #306 ) );
#227 = EDGE_LOOP( '', ( #307, #308, #309, #310 ) );
#228 = AXIS2_PLACEMENT_3D( '', #311, #312, #313 );
#229 = PRE_DEFINED_MARKER( '' );
#230 = COLOUR_RGB( '', 0.689999997615810, 0.689999997615810, 0.689999997615810 );
#231 = DRAUGHTING_PRE_DEFINED_CURVE_FONT( 'continuous' );
#232 = COLOUR_RGB( '', 0.689999997615810, 0.689999997615810, 0.689999997615810 );
#233 = AXIS2_PLACEMENT_3D( '', #314, #315, #316 );
#234 = DRAUGHTING_PRE_DEFINED_CURVE_FONT( 'continuous' );
#235 = COLOUR_RGB( '', 0.689999997615810, 0.689999997615810, 0.689999997615810 );
#236 = CARTESIAN_POINT( '', ( 0.000000000000000, 6.47694300536655E-014, 528.900000000000 ) );
#237 = VECTOR( '', #317, 1.00000000000000 );
#238 = DRAUGHTING_PRE_DEFINED_CURVE_FONT( 'continuous' );
#239 = COLOUR_RGB( '', 0.689999997615810, 0.689999997615810, 0.689999997615810 );
#240 = AXIS2_PLACEMENT_3D( '', #318, #319, #320 );
#241 = PRE_DEFINED_MARKER( '' );
#242 = COLOUR_RGB( '', 0.689999997615810, 0.689999997615810, 0.689999997615810 );
#243 = PRE_DEFINED_MARKER( '' );
#244 = COLOUR_RGB( '', 0.689999997615810, 0.689999997615810, 0.689999997615810 );
#245 = SURFACE_SIDE_STYLE( '', ( #321 ) );
#246 = EDGE_LOOP( '', ( #322, #323 ) );
#247 = EDGE_LOOP( '', ( #324, #325 ) );
#248 = AXIS2_PLACEMENT_3D( '', #326, #327, #328 );
#249 = SURFACE_SIDE_STYLE( '', ( #329 ) );
#250 = EDGE_LOOP( '', ( #330, #331 ) );
#251 = EDGE_LOOP( '', ( #332, #333 ) );
#252 = AXIS2_PLACEMENT_3D( '', #334, #335, #336 );
#253 = PRE_DEFINED_MARKER( '' );
#254 = COLOUR_RGB( '', 0.689999997615810, 0.689999997615810, 0.689999997615810 );
#255 = DRAUGHTING_PRE_DEFINED_CURVE_FONT( 'continuous' );
#256 = COLOUR_RGB( '', 0.689999997615810, 0.689999997615810, 0.689999997615810 );
#257 = AXIS2_PLACEMENT_3D( '', #337, #338, #339 );
#258 = DRAUGHTING_PRE_DEFINED_CURVE_FONT( 'continuous' );
#259 = COLOUR_RGB( '', 0.689999997615810, 0.689999997615810, 0.689999997615810 );
#260 = AXIS2_PLACEMENT_3D( '', #340, #341, #342 );
#261 = PRE_DEFINED_MARKER( '' );
#262 = COLOUR_RGB( '', 0.689999997615810, 0.689999997615810, 0.689999997615810 );
#263 = PRE_DEFINED_MARKER( '' );
#264 = COLOUR_RGB( '', 0.689999997615810, 0.689999997615810, 0.689999997615810 );
#266 = CARTESIAN_POINT( '', ( 0.000000000000000, 0.000000000000000, 0.000000000000000 ) );
#267 = DIRECTION( '', ( 1.00000000000000, -0.000000000000000, 0.000000000000000 ) );
#268 = DIRECTION( '', ( 0.000000000000000, 0.000000000000000, -1.00000000000000 ) );
#269 = SURFACE_STYLE_FILL_AREA( #343 );
#270 = ORIENTED_EDGE( '', *, *, #61, .F. );
#271 = ORIENTED_EDGE( '', *, *, #85, .T. );
#272 = ORIENTED_EDGE( '', *, *, #57, .F. );
#273 = ORIENTED_EDGE( '', *, *, #99, .T. );
#274 = CARTESIAN_POINT( '', ( 0.000000000000000, 0.000000000000000, 0.000000000000000 ) );
#275 = DIRECTION( '', ( -1.00000000000000, -0.000000000000000, -0.000000000000000 ) );
#276 = DIRECTION( '', ( 0.000000000000000, 0.000000000000000, -1.00000000000000 ) );
#277 = CARTESIAN_POINT( '', ( 5000.00000000000, 0.000000000000000, 0.000000000000000 ) );
#278 = DIRECTION( '', ( -1.00000000000000, 0.000000000000000, 0.000000000000000 ) );
#279 = DIRECTION( '', ( 0.000000000000000, 0.000000000000000, -1.00000000000000 ) );
#280 = DIRECTION( '', ( -1.00000000000000, -0.000000000000000, -0.000000000000000 ) );
#281 = DIRECTION( '', ( 1.00000000000000, 0.000000000000000, 0.000000000000000 ) );
#282 = DIRECTION( '', ( 1.00000000000000, 0.000000000000000, 0.000000000000000 ) );
#283 = SURFACE_STYLE_FILL_AREA( #344 );
#284 = ORIENTED_EDGE( '', *, *, #61, .T. );
#285 = ORIENTED_EDGE( '', *, *, #55, .T. );
#286 = ORIENTED_EDGE( '', *, *, #57, .T. );
#287 = ORIENTED_EDGE( '', *, *, #69, .T. );
#288 = CARTESIAN_POINT( '', ( 0.000000000000000, 0.000000000000000, 0.000000000000000 ) );
#289 = DIRECTION( '', ( -1.00000000000000, -0.000000000000000, -0.000000000000000 ) );
#290 = DIRECTION( '', ( 0.000000000000000, 0.000000000000000, -1.00000000000000 ) );
#291 = CARTESIAN_POINT( '', ( 0.000000000000000, 0.000000000000000, 0.000000000000000 ) );
#292 = DIRECTION( '', ( 1.00000000000000, -0.000000000000000, 0.000000000000000 ) );
#293 = DIRECTION( '', ( 0.000000000000000, 0.000000000000000, -1.00000000000000 ) );
#294 = CARTESIAN_POINT( '', ( 5000.00000000000, 0.000000000000000, 0.000000000000000 ) );
#295 = DIRECTION( '', ( 1.00000000000000, 0.000000000000000, 0.000000000000000 ) );
#296 = DIRECTION( '', ( 0.000000000000000, 0.000000000000000, -1.00000000000000 ) );
#297 = SURFACE_STYLE_FILL_AREA( #345 );
#298 = ORIENTED_EDGE( '', *, *, #59, .F. );
#299 = ORIENTED_EDGE( '', *, *, #51, .F. );
#300 = ORIENTED_EDGE( '', *, *, #83, .F. );
#301 = ORIENTED_EDGE( '', *, *, #81, .T. );
#302 = CARTESIAN_POINT( '', ( 0.000000000000000, 0.000000000000000, 0.000000000000000 ) );
#303 = DIRECTION( '', ( -1.00000000000000, -0.000000000000000, -0.000000000000000 ) );
#304 = DIRECTION( '', ( 0.000000000000000, 0.000000000000000, -1.00000000000000 ) );
#305 = SURFACE_STYLE_FILL_AREA( #346 );
#306 = SURFACE_STYLE_FILL_AREA( #347 );
#307 = ORIENTED_EDGE( '', *, *, #59, .T. );
#308 = ORIENTED_EDGE( '', *, *, #71, .T. );
#309 = ORIENTED_EDGE( '', *, *, #83, .T. );
#310 = ORIENTED_EDGE( '', *, *, #97, .F. );
#311 = CARTESIAN_POINT( '', ( 0.000000000000000, 0.000000000000000, 0.000000000000000 ) );
#312 = DIRECTION( '', ( -1.00000000000000, -0.000000000000000, -0.000000000000000 ) );
#313 = DIRECTION( '', ( 0.000000000000000, 0.000000000000000, -1.00000000000000 ) );
#314 = CARTESIAN_POINT( '', ( 5000.00000000000, 0.000000000000000, 0.000000000000000 ) );
#315 = DIRECTION( '', ( 1.00000000000000, 0.000000000000000, 0.000000000000000 ) );
#316 = DIRECTION( '', ( 0.000000000000000, 0.000000000000000, -1.00000000000000 ) );
#317 = DIRECTION( '', ( -1.00000000000000, 0.000000000000000, 0.000000000000000 ) );
#318 = CARTESIAN_POINT( '', ( 0.000000000000000, 0.000000000000000, 0.000000000000000 ) );
#319 = DIRECTION( '', ( 1.00000000000000, -0.000000000000000, 0.000000000000000 ) );
#320 = DIRECTION( '', ( 0.000000000000000, 0.000000000000000, -1.00000000000000 ) );
#321 = SURFACE_STYLE_FILL_AREA( #348 );
#322 = ORIENTED_EDGE( '', *, *, #85, .F. );
#323 = ORIENTED_EDGE( '', *, *, #69, .F. );
#324 = ORIENTED_EDGE( '', *, *, #97, .T. );
#325 = ORIENTED_EDGE( '', *, *, #51, .T. );
#326 = CARTESIAN_POINT( '', ( 0.000000000000000, 0.000000000000000, 0.000000000000000 ) );
#327 = DIRECTION( '', ( 1.00000000000000, 0.000000000000000, 0.000000000000000 ) );
#328 = DIRECTION( '', ( 0.000000000000000, 0.000000000000000, -1.00000000000000 ) );
#329 = SURFACE_STYLE_FILL_AREA( #349 );
#330 = ORIENTED_EDGE( '', *, *, #55, .F. );
#331 = ORIENTED_EDGE( '', *, *, #99, .F. );
#332 = ORIENTED_EDGE( '', *, *, #71, .F. );
#333 = ORIENTED_EDGE( '', *, *, #81, .F. );
#334 = CARTESIAN_POINT( '', ( 5000.00000000000, 0.000000000000000, 0.000000000000000 ) );
#335 = DIRECTION( '', ( 1.00000000000000, 0.000000000000000, 0.000000000000000 ) );
#336 = DIRECTION( '', ( 0.000000000000000, 0.000000000000000, -1.00000000000000 ) );
#337 = CARTESIAN_POINT( '', ( 0.000000000000000, 0.000000000000000, 0.000000000000000 ) );
#338 = DIRECTION( '', ( 1.00000000000000, -0.000000000000000, 0.000000000000000 ) );
#339 = DIRECTION( '', ( 0.000000000000000, 0.000000000000000, -1.00000000000000 ) );
#340 = CARTESIAN_POINT( '', ( 5000.00000000000, 0.000000000000000, 0.000000000000000 ) );
#341 = DIRECTION( '', ( -1.00000000000000, 0.000000000000000, 0.000000000000000 ) );
#342 = DIRECTION( '', ( 0.000000000000000, 0.000000000000000, -1.00000000000000 ) );
#343 = FILL_AREA_STYLE( '', ( #350 ) );
#344 = FILL_AREA_STYLE( '', ( #351 ) );
#345 = FILL_AREA_STYLE( '', ( #352 ) );
#346 = FILL_AREA_STYLE( '', ( #353 ) );
#347 = FILL_AREA_STYLE( '', ( #354 ) );
#348 = FILL_AREA_STYLE( '', ( #355 ) );
#349 = FILL_AREA_STYLE( '', ( #356 ) );
#350 = FILL_AREA_STYLE_COLOUR( '', #357 );
#351 = FILL_AREA_STYLE_COLOUR( '', #358 );
#352 = FILL_AREA_STYLE_COLOUR( '', #359 );
#353 = FILL_AREA_STYLE_COLOUR( '', #360 );
#354 = FILL_AREA_STYLE_COLOUR( '', #361 );
#355 = FILL_AREA_STYLE_COLOUR( '', #362 );
#356 = FILL_AREA_STYLE_COLOUR( '', #363 );
#357 = COLOUR_RGB( '', 0.689999997615810, 0.689999997615810, 0.689999997615810 );
#358 = COLOUR_RGB( '', 0.689999997615810, 0.689999997615810, 0.689999997615810 );
#359 = COLOUR_RGB( '', 0.689999997615810, 0.689999997615810, 0.689999997615810 );
#360 = COLOUR_RGB( '', 0.689999997615810, 0.689999997615810, 0.689999997615810 );
#361 = COLOUR_RGB( '', 0.689999997615810, 0.689999997615810, 0.689999997615810 );
#362 = COLOUR_RGB( '', 0.689999997615810, 0.689999997615810, 0.689999997615810 );
#363 = COLOUR_RGB( '', 0.689999997615810, 0.689999997615810, 0.689999997615810 );
ENDSEC;
END-ISO-10303-21;
