ISO-10303-21;
HEADER;
/* Generated by software containing ST-Developer
 * from STEP Tools, Inc. (www.steptools.com) 
 */
/* OPTION: using custom renumber hook */

FILE_DESCRIPTION(
/* description */ ('STEP AP203'),
/* implementation_level */ '2;1');

FILE_NAME(
/* name */ '70396040017(architecture400)',
/* time_stamp */ '2022-06-30T14:32:35+02:00',
/* author */ ('License CC BY-ND 4.0'),
/* organization */ ('CADENAS'),
/* preprocessor_version */ 'ST-DEVELOPER v18.102',
/* originating_system */ 'PARTsolutions',
/* authorisation */ '  ');

FILE_SCHEMA (('CONFIG_CONTROL_DESIGN'));
ENDSEC;

DATA;
#10=PROPERTY_DEFINITION_REPRESENTATION(#14,#12);
#11=PROPERTY_DEFINITION_REPRESENTATION(#15,#13);
#12=REPRESENTATION('',(#16),#197);
#13=REPRESENTATION('',(#17),#197);
#14=PROPERTY_DEFINITION('pmi validation property','',#202);
#15=PROPERTY_DEFINITION('pmi validation property','',#202);
#16=VALUE_REPRESENTATION_ITEM('number of annotations',COUNT_MEASURE(0.));
#17=VALUE_REPRESENTATION_ITEM('number of views',COUNT_MEASURE(0.));
#18=SHAPE_REPRESENTATION_RELATIONSHIP('','',#119,#19);
#19=ADVANCED_BREP_SHAPE_REPRESENTATION('',(#117),#197);
#20=TOROIDAL_SURFACE('',#128,637.,176.3);
#21=TOROIDAL_SURFACE('',#130,637.,200.);
#22=CYLINDRICAL_SURFACE('',#124,176.3);
#23=CYLINDRICAL_SURFACE('',#126,200.);
#24=CYLINDRICAL_SURFACE('',#132,176.3);
#25=CYLINDRICAL_SURFACE('',#136,200.);
#26=ORIENTED_EDGE('',*,*,#42,.T.);
#27=ORIENTED_EDGE('',*,*,#43,.F.);
#28=ORIENTED_EDGE('',*,*,#44,.T.);
#29=ORIENTED_EDGE('',*,*,#42,.F.);
#30=ORIENTED_EDGE('',*,*,#43,.T.);
#31=ORIENTED_EDGE('',*,*,#45,.F.);
#32=ORIENTED_EDGE('',*,*,#44,.F.);
#33=ORIENTED_EDGE('',*,*,#46,.T.);
#34=ORIENTED_EDGE('',*,*,#45,.T.);
#35=ORIENTED_EDGE('',*,*,#47,.F.);
#36=ORIENTED_EDGE('',*,*,#48,.T.);
#37=ORIENTED_EDGE('',*,*,#46,.F.);
#38=ORIENTED_EDGE('',*,*,#49,.T.);
#39=ORIENTED_EDGE('',*,*,#48,.F.);
#40=ORIENTED_EDGE('',*,*,#47,.T.);
#41=ORIENTED_EDGE('',*,*,#49,.F.);
#42=EDGE_CURVE('',#50,#50,#58,.T.);
#43=EDGE_CURVE('',#51,#51,#59,.T.);
#44=EDGE_CURVE('',#52,#52,#60,.T.);
#45=EDGE_CURVE('',#53,#53,#61,.T.);
#46=EDGE_CURVE('',#54,#54,#62,.T.);
#47=EDGE_CURVE('',#55,#55,#63,.T.);
#48=EDGE_CURVE('',#56,#56,#64,.T.);
#49=EDGE_CURVE('',#57,#57,#65,.T.);
#50=VERTEX_POINT('',#174);
#51=VERTEX_POINT('',#176);
#52=VERTEX_POINT('',#179);
#53=VERTEX_POINT('',#182);
#54=VERTEX_POINT('',#185);
#55=VERTEX_POINT('',#188);
#56=VERTEX_POINT('',#191);
#57=VERTEX_POINT('',#194);
#58=CIRCLE('',#122,176.3);
#59=CIRCLE('',#123,200.);
#60=CIRCLE('',#125,176.3);
#61=CIRCLE('',#127,200.);
#62=CIRCLE('',#129,176.3);
#63=CIRCLE('',#131,200.);
#64=CIRCLE('',#133,176.3);
#65=CIRCLE('',#135,200.);
#66=EDGE_LOOP('',(#26));
#67=EDGE_LOOP('',(#27));
#68=EDGE_LOOP('',(#28));
#69=EDGE_LOOP('',(#29));
#70=EDGE_LOOP('',(#30));
#71=EDGE_LOOP('',(#31));
#72=EDGE_LOOP('',(#32));
#73=EDGE_LOOP('',(#33));
#74=EDGE_LOOP('',(#34));
#75=EDGE_LOOP('',(#35));
#76=EDGE_LOOP('',(#36));
#77=EDGE_LOOP('',(#37));
#78=EDGE_LOOP('',(#38));
#79=EDGE_LOOP('',(#39));
#80=EDGE_LOOP('',(#40));
#81=EDGE_LOOP('',(#41));
#82=FACE_BOUND('',#66,.T.);
#83=FACE_BOUND('',#67,.T.);
#84=FACE_BOUND('',#68,.T.);
#85=FACE_BOUND('',#69,.T.);
#86=FACE_BOUND('',#70,.T.);
#87=FACE_BOUND('',#71,.T.);
#88=FACE_BOUND('',#72,.T.);
#89=FACE_BOUND('',#73,.T.);
#90=FACE_BOUND('',#74,.T.);
#91=FACE_BOUND('',#75,.T.);
#92=FACE_BOUND('',#76,.T.);
#93=FACE_BOUND('',#77,.T.);
#94=FACE_BOUND('',#78,.T.);
#95=FACE_BOUND('',#79,.T.);
#96=FACE_BOUND('',#80,.T.);
#97=FACE_BOUND('',#81,.T.);
#98=PLANE('',#121);
#99=PLANE('',#134);
#100=ADVANCED_FACE('',(#82,#83),#98,.T.);
#101=ADVANCED_FACE('',(#84,#85),#22,.F.);
#102=ADVANCED_FACE('',(#86,#87),#23,.T.);
#103=ADVANCED_FACE('',(#88,#89),#20,.F.);
#104=ADVANCED_FACE('',(#90,#91),#21,.T.);
#105=ADVANCED_FACE('',(#92,#93),#24,.F.);
#106=ADVANCED_FACE('',(#94,#95),#99,.T.);
#107=ADVANCED_FACE('',(#96,#97),#25,.T.);
#108=CLOSED_SHELL('',(#100,#101,#102,#103,#104,#105,#106,#107));
#109=STYLED_ITEM('',(#110),#117);
#110=PRESENTATION_STYLE_ASSIGNMENT((#111));
#111=SURFACE_STYLE_USAGE(.BOTH.,#112);
#112=SURFACE_SIDE_STYLE('',(#113));
#113=SURFACE_STYLE_FILL_AREA(#114);
#114=FILL_AREA_STYLE('',(#115));
#115=FILL_AREA_STYLE_COLOUR('',#116);
#116=COLOUR_RGB('',0.689999997615814,0.689999997615814,0.689999997615814);
#117=MANIFOLD_SOLID_BREP('70396040017(architecture400)',#108);
#118=SHAPE_DEFINITION_REPRESENTATION(#202,#119);
#119=SHAPE_REPRESENTATION('70396040017(architecture400)',(#120),#197);
#120=AXIS2_PLACEMENT_3D('',#171,#137,#138);
#121=AXIS2_PLACEMENT_3D('',#172,#139,#140);
#122=AXIS2_PLACEMENT_3D('',#173,#141,#142);
#123=AXIS2_PLACEMENT_3D('',#175,#143,#144);
#124=AXIS2_PLACEMENT_3D('',#177,#145,#146);
#125=AXIS2_PLACEMENT_3D('',#178,#147,#148);
#126=AXIS2_PLACEMENT_3D('',#180,#149,#150);
#127=AXIS2_PLACEMENT_3D('',#181,#151,#152);
#128=AXIS2_PLACEMENT_3D('',#183,#153,#154);
#129=AXIS2_PLACEMENT_3D('',#184,#155,#156);
#130=AXIS2_PLACEMENT_3D('',#186,#157,#158);
#131=AXIS2_PLACEMENT_3D('',#187,#159,#160);
#132=AXIS2_PLACEMENT_3D('',#189,#161,#162);
#133=AXIS2_PLACEMENT_3D('',#190,#163,#164);
#134=AXIS2_PLACEMENT_3D('',#192,#165,#166);
#135=AXIS2_PLACEMENT_3D('',#193,#167,#168);
#136=AXIS2_PLACEMENT_3D('',#195,#169,#170);
#137=DIRECTION('',(0.,0.,1.));
#138=DIRECTION('',(1.,0.,0.));
#139=DIRECTION('',(-1.,0.,0.));
#140=DIRECTION('',(0.,0.,1.));
#141=DIRECTION('',(1.,0.,0.));
#142=DIRECTION('',(0.,0.,-1.));
#143=DIRECTION('',(1.,0.,0.));
#144=DIRECTION('',(0.,0.,-1.));
#145=DIRECTION('',(1.,0.,0.));
#146=DIRECTION('',(0.,0.,-1.));
#147=DIRECTION('',(1.,0.,0.));
#148=DIRECTION('',(0.,0.,-1.));
#149=DIRECTION('',(1.,0.,0.));
#150=DIRECTION('',(0.,0.,-1.));
#151=DIRECTION('',(1.,0.,0.));
#152=DIRECTION('',(0.,0.,-1.));
#153=DIRECTION('',(0.,1.,0.));
#154=DIRECTION('',(0.,0.,1.));
#155=DIRECTION('',(0.866025403784439,0.,-0.5));
#156=DIRECTION('',(0.,1.,0.));
#157=DIRECTION('',(0.,1.,0.));
#158=DIRECTION('',(0.,0.,1.));
#159=DIRECTION('',(0.866025403784439,0.,-0.5));
#160=DIRECTION('',(0.,1.,0.));
#161=DIRECTION('',(0.866025403784438,0.,-0.5));
#162=DIRECTION('',(-0.5,0.,-0.866025403784438));
#163=DIRECTION('',(0.866025403784438,0.,-0.5));
#164=DIRECTION('',(-0.5,0.,-0.866025403784438));
#165=DIRECTION('',(0.866025403784438,0.,-0.5));
#166=DIRECTION('',(-0.5,0.,-0.866025403784438));
#167=DIRECTION('',(0.866025403784438,0.,-0.5));
#168=DIRECTION('',(-0.5,0.,-0.866025403784438));
#169=DIRECTION('',(0.866025403784438,0.,-0.5));
#170=DIRECTION('',(-0.5,0.,-0.866025403784438));
#171=CARTESIAN_POINT('',(0.,0.,0.));
#172=CARTESIAN_POINT('',(0.,0.,200.));
#173=CARTESIAN_POINT('',(0.,0.,0.));
#174=CARTESIAN_POINT('',(0.,0.,-176.3));
#175=CARTESIAN_POINT('',(0.,0.,0.));
#176=CARTESIAN_POINT('',(0.,0.,-200.));
#177=CARTESIAN_POINT('',(577.65,0.,0.));
#178=CARTESIAN_POINT('',(577.65,0.,0.));
#179=CARTESIAN_POINT('',(577.65,0.,-176.3));
#180=CARTESIAN_POINT('',(577.65,0.,0.));
#181=CARTESIAN_POINT('',(577.65,0.,0.));
#182=CARTESIAN_POINT('',(577.65,0.,-200.));
#183=CARTESIAN_POINT('',(577.65,0.,-637.));
#184=CARTESIAN_POINT('',(896.15,0.,-85.3418177893124));
#185=CARTESIAN_POINT('',(896.15,176.3,-85.3418177893124));
#186=CARTESIAN_POINT('',(577.65,0.,-637.));
#187=CARTESIAN_POINT('',(896.15,0.,-85.3418177893124));
#188=CARTESIAN_POINT('',(896.15,200.,-85.3418177893124));
#189=CARTESIAN_POINT('',(1396.40957449608,0.,-374.166817789313));
#190=CARTESIAN_POINT('',(1396.40957449608,0.,-374.166817789313));
#191=CARTESIAN_POINT('',(1308.25957449608,0.,-526.847096476509));
#192=CARTESIAN_POINT('',(1484.55957449608,0.,-221.486539102116));
#193=CARTESIAN_POINT('',(1396.40957449608,0.,-374.166817789313));
#194=CARTESIAN_POINT('',(1296.40957449608,0.,-547.3718985462));
#195=CARTESIAN_POINT('',(1396.40957449608,0.,-374.166817789313));
#196=MECHANICAL_DESIGN_GEOMETRIC_PRESENTATION_REPRESENTATION('',(#109),
#197);
#197=(
GEOMETRIC_REPRESENTATION_CONTEXT(3)
GLOBAL_UNCERTAINTY_ASSIGNED_CONTEXT((#198))
GLOBAL_UNIT_ASSIGNED_CONTEXT((#201,#200,#199))
REPRESENTATION_CONTEXT('70396040017(architecture400)',
'TOP_LEVEL_ASSEMBLY_PART')
);
#198=UNCERTAINTY_MEASURE_WITH_UNIT(LENGTH_MEASURE(0.005),#201,
'DISTANCE_ACCURACY_VALUE','Maximum Tolerance applied to model');
#199=(
NAMED_UNIT(*)
SI_UNIT($,.STERADIAN.)
SOLID_ANGLE_UNIT()
);
#200=(
NAMED_UNIT(*)
PLANE_ANGLE_UNIT()
SI_UNIT($,.RADIAN.)
);
#201=(
LENGTH_UNIT()
NAMED_UNIT(*)
SI_UNIT(.MILLI.,.METRE.)
);
#202=PRODUCT_DEFINITION_SHAPE('','',#203);
#203=PRODUCT_DEFINITION('','',#205,#204);
#204=DESIGN_CONTEXT('',#211,'design');
#205=PRODUCT_DEFINITION_FORMATION_WITH_SPECIFIED_SOURCE('','',#207,
 .NOT_KNOWN.);
#206=PRODUCT_RELATED_PRODUCT_CATEGORY('','',(#207));
#207=PRODUCT('70396040017(architecture400)',
'70396040017(architecture400)','70396040017(architecture400)',(#209));
#208=PRODUCT_CATEGORY('','');
#209=MECHANICAL_CONTEXT('',#211,'mechanical');
#210=APPLICATION_PROTOCOL_DEFINITION('international standard',
'config_control_design',2010,#211);
#211=APPLICATION_CONTEXT(
'configuration controlled 3D designs of mechanical parts and assemblie
s');
ENDSEC;
END-ISO-10303-21;
