ISO-10303-21;
HEADER;
/****************************************************************
 * Generated by software with PDE/Lib inside                    *
 * PDElib Version v51a, created Mon 03/22/2010                  *
 * International Technegroup Inc. (www.iti-oh.com)              *
 ****************************************************************/
FILE_DESCRIPTION((''),'2;1');
FILE_NAME('R:\\Neue Zeichnungdateien ab Januar 2010\\Edelstahlprodukte\\Schieneneinh\S\dnger\\Step\\120031.stp','2010-08-06T09:29:17',('DMK009'),(''),'Autodesk Inventor 2010','Autodesk Inventor 2010','');
FILE_SCHEMA(('AUTOMOTIVE_DESIGN { 1 0 10303 214 1 1 1 1 }'));
ENDSEC;
DATA;
#5=APPLICATION_CONTEXT('automotive design');
#6=APPLICATION_PROTOCOL_DEFINITION('International Standard','automotive_design',2001,#5);
#7=PRODUCT_CONTEXT('',#5,'mechanical');
#8=PRODUCT('MPC-Schiebemutter M8, 20 x 14 x 5 mm f\S\|r Profile 27x18 und 28x30 Edelstahl','MPC-Schiebemutter M8, 20 x 14 x 5 mm f\S\|r Profile 27x18 und 28x30 Edelstahl',$,(#7));
#9=PRODUCT_RELATED_PRODUCT_CATEGORY('part',$,(#8));
#10=PRODUCT_DEFINITION_FORMATION('',$,#8);
#11=PRODUCT_DEFINITION_CONTEXT('part definition',#5,'design');
#12=PRODUCT_DEFINITION('',$,#10,#11);
#18=(NAMED_UNIT(*)PLANE_ANGLE_UNIT()SI_UNIT($,.RADIAN.));
#19=DIMENSIONAL_EXPONENTS(0.0,0.0,0.0,0.0,0.0,0.0,0.0);
#20=PLANE_ANGLE_MEASURE_WITH_UNIT(PLANE_ANGLE_MEASURE(0.017453292500000),#18);
#24=(CONVERSION_BASED_UNIT('DEGREE',#20)NAMED_UNIT(#19)PLANE_ANGLE_UNIT());
#28=(NAMED_UNIT(*)SI_UNIT($,.STERADIAN.)SOLID_ANGLE_UNIT());
#32=(LENGTH_UNIT()NAMED_UNIT(*)SI_UNIT(.MILLI.,.METRE.));
#34=UNCERTAINTY_MEASURE_WITH_UNIT(LENGTH_MEASURE(0.010000000000000),#32,'DISTANCE_ACCURACY_VALUE','');
#36=(GEOMETRIC_REPRESENTATION_CONTEXT(3)GLOBAL_UNCERTAINTY_ASSIGNED_CONTEXT((#34))GLOBAL_UNIT_ASSIGNED_CONTEXT((#24,#28,#32))REPRESENTATION_CONTEXT('None','None'));
#37=AXIS2_PLACEMENT_3D('',#38,#39,#40);
#38=CARTESIAN_POINT('',(0.0,0.0,0.0));
#39=DIRECTION('',(0.0,0.0,1.0));
#40=DIRECTION('',(1.0,0.0,0.0));
#41=SHAPE_REPRESENTATION('',(#37),#36);
#42=PRODUCT_DEFINITION_SHAPE('','',#12);
#43=SHAPE_DEFINITION_REPRESENTATION(#42,#41);
#49=(NAMED_UNIT(*)PLANE_ANGLE_UNIT()SI_UNIT($,.RADIAN.));
#50=DIMENSIONAL_EXPONENTS(0.0,0.0,0.0,0.0,0.0,0.0,0.0);
#51=PLANE_ANGLE_MEASURE_WITH_UNIT(PLANE_ANGLE_MEASURE(0.017453292500000),#49);
#55=(CONVERSION_BASED_UNIT('DEGREE',#51)NAMED_UNIT(#50)PLANE_ANGLE_UNIT());
#59=(NAMED_UNIT(*)SI_UNIT($,.STERADIAN.)SOLID_ANGLE_UNIT());
#63=(LENGTH_UNIT()NAMED_UNIT(*)SI_UNIT(.MILLI.,.METRE.));
#65=UNCERTAINTY_MEASURE_WITH_UNIT(LENGTH_MEASURE(0.000001000000000),#63,'DISTANCE_ACCURACY_VALUE','');
#67=(GEOMETRIC_REPRESENTATION_CONTEXT(3)GLOBAL_UNCERTAINTY_ASSIGNED_CONTEXT((#65))GLOBAL_UNIT_ASSIGNED_CONTEXT((#55,#59,#63))REPRESENTATION_CONTEXT('','3D'));
#68=CARTESIAN_POINT('',(-5.199144347017861,4.677232E-016,2.500000000000000));
#69=CARTESIAN_POINT('',(-5.199144347017861,4.677232E-016,-2.500000000000000));
#70=CARTESIAN_POINT('',(-5.199144347017859,-3.323499999999999,2.500000000000000));
#71=CARTESIAN_POINT('',(-5.199144347017859,-3.323499999999999,-2.500000000000000));
#72=CARTESIAN_POINT('',(-1.875644347017860,-3.323499999999999,2.500000000000000));
#73=CARTESIAN_POINT('',(-1.875644347017860,-3.323499999999999,-2.500000000000000));
#74=CARTESIAN_POINT('',(1.447855652982139,-3.323499999999998,2.500000000000000));
#75=CARTESIAN_POINT('',(1.447855652982139,-3.323499999999998,-2.500000000000000));
#76=CARTESIAN_POINT('',(1.447855652982139,1.281719E-015,2.500000000000000));
#77=CARTESIAN_POINT('',(1.447855652982139,1.281719E-015,-2.500000000000000));
#78=CARTESIAN_POINT('',(1.447855652982138,3.323500000000001,2.500000000000000));
#79=CARTESIAN_POINT('',(1.447855652982138,3.323500000000001,-2.500000000000000));
#80=CARTESIAN_POINT('',(-1.875644347017861,3.323500000000001,2.500000000000000));
#81=CARTESIAN_POINT('',(-1.875644347017861,3.323500000000001,-2.500000000000000));
#82=CARTESIAN_POINT('',(-5.199144347017860,3.323500000000000,2.500000000000000));
#83=CARTESIAN_POINT('',(-5.199144347017860,3.323500000000000,-2.500000000000000));
#84=CARTESIAN_POINT('',(-5.199144347017861,4.677232E-016,2.500000000000000));
#85=CARTESIAN_POINT('',(-5.199144347017861,4.677232E-016,-2.500000000000000));
#93=(BOUNDED_SURFACE()B_SPLINE_SURFACE(1,2,((#68,#70,#72,#74,#76,#78,#80,#82,#84),(#69,#71,#73,#75,#77,#79,#81,#83,#85)),.UNSPECIFIED.,.F.,.T.,.U.)B_SPLINE_SURFACE_WITH_KNOTS((2,2),(3,2,2,2,3),(-9.149660891700751,-7.645222799328253),(0.0,5.220541592102839,10.441083184205677,15.661624776308516,20.882166368411355),.UNSPECIFIED.)GEOMETRIC_REPRESENTATION_ITEM()RATIONAL_B_SPLINE_SURFACE(((1.0,0.707106781186548,1.0,0.707106781186548,1.0,0.707106781186548,1.0,0.707106781186548,1.0),(1.0,0.707106781186548,1.0,0.707106781186548,1.0,0.707106781186548,1.0,0.707106781186548,1.0)))REPRESENTATION_ITEM('')SURFACE());
#94=CARTESIAN_POINT('',(-5.199144347017861,4.677232E-016,-2.500000000000000));
#95=VERTEX_POINT('',#94);
#96=CARTESIAN_POINT('',(-1.875644347017861,8.747212E-016,-2.500000000000000));
#97=DIRECTION('',(0.0,0.0,1.0));
#98=DIRECTION('',(1.0,0.0,0.0));
#99=AXIS2_PLACEMENT_3D('',#96,#97,#98);
#100=CIRCLE('',#99,3.323500000000000);
#101=EDGE_CURVE('',#95,#95,#100,.T.);
#102=ORIENTED_EDGE('',*,*,#101,.F.);
#103=EDGE_LOOP('',(#102));
#104=FACE_OUTER_BOUND('',#103,.T.);
#105=CARTESIAN_POINT('',(1.447855652982140,8.747212E-016,2.500000000000000));
#106=VERTEX_POINT('',#105);
#107=CARTESIAN_POINT('',(-1.875644347017861,8.747212E-016,2.500000000000000));
#108=DIRECTION('',(0.0,0.0,-1.0));
#109=DIRECTION('',(1.0,0.0,0.0));
#110=AXIS2_PLACEMENT_3D('',#107,#108,#109);
#111=CIRCLE('',#110,3.323500000000000);
#112=EDGE_CURVE('',#106,#106,#111,.T.);
#113=ORIENTED_EDGE('',*,*,#112,.F.);
#114=EDGE_LOOP('',(#113));
#115=FACE_BOUND('',#114,.T.);
#116=ADVANCED_FACE('',(#104,#115),#93,.F.);
#117=CARTESIAN_POINT('',(-1.875644347017859,7.906134E-016,-2.500000000000000));
#118=DIRECTION('',(0.0,0.0,1.0));
#119=DIRECTION('',(1.0,0.0,0.0));
#120=AXIS2_PLACEMENT_3D('',#117,#118,#119);
#121=PLANE('',#120);
#122=CARTESIAN_POINT('',(11.388037984510914,-7.0,-2.500000000000000));
#123=VERTEX_POINT('',#122);
#124=CARTESIAN_POINT('',(7.636749290475198,7.000000000000002,-2.500000000000000));
#125=VERTEX_POINT('',#124);
#126=CARTESIAN_POINT('',(11.388037984510914,-7.0,-2.500000000000000));
#127=DIRECTION('',(-0.258819045102521,0.965925826289068,0.0));
#128=VECTOR('',#127,14.493866525741163);
#129=LINE('',#126,#128);
#130=EDGE_CURVE('',#123,#125,#129,.T.);
#131=ORIENTED_EDGE('',*,*,#130,.F.);
#132=CARTESIAN_POINT('',(-11.388037984510914,-7.0,-2.500000000000000));
#133=VERTEX_POINT('',#132);
#134=CARTESIAN_POINT('',(-11.388037984510914,-7.0,-2.500000000000000));
#135=DIRECTION('',(1.0,0.0,0.0));
#136=VECTOR('',#135,22.776075969021829);
#137=LINE('',#134,#136);
#138=EDGE_CURVE('',#133,#123,#137,.T.);
#139=ORIENTED_EDGE('',*,*,#138,.F.);
#140=CARTESIAN_POINT('',(-15.139326678546634,7.0,-2.500000000000000));
#141=VERTEX_POINT('',#140);
#142=CARTESIAN_POINT('',(-15.139326678546634,7.0,-2.500000000000000));
#143=DIRECTION('',(0.258819045102521,-0.965925826289068,0.0));
#144=VECTOR('',#143,14.493866525741163);
#145=LINE('',#142,#144);
#146=EDGE_CURVE('',#141,#133,#145,.T.);
#147=ORIENTED_EDGE('',*,*,#146,.F.);
#148=CARTESIAN_POINT('',(7.636749290475198,7.000000000000002,-2.500000000000000));
#149=DIRECTION('',(-1.0,0.0,0.0));
#150=VECTOR('',#149,22.776075969021832);
#151=LINE('',#148,#150);
#152=EDGE_CURVE('',#125,#141,#151,.T.);
#153=ORIENTED_EDGE('',*,*,#152,.F.);
#154=EDGE_LOOP('',(#131,#139,#147,#153));
#155=FACE_OUTER_BOUND('',#154,.T.);
#156=ORIENTED_EDGE('',*,*,#101,.T.);
#157=EDGE_LOOP('',(#156));
#158=FACE_BOUND('',#157,.T.);
#159=ADVANCED_FACE('',(#155,#158),#121,.F.);
#160=CARTESIAN_POINT('',(-11.388037984510914,-7.0,0.0));
#161=DIRECTION('',(-0.965925826289068,-0.258819045102521,0.0));
#162=DIRECTION('',(0.0,0.0,1.0));
#163=AXIS2_PLACEMENT_3D('',#160,#161,#162);
#164=PLANE('',#163);
#165=CARTESIAN_POINT('',(-11.388037984510914,-7.0,2.500000000000000));
#166=VERTEX_POINT('',#165);
#167=CARTESIAN_POINT('',(-15.139326678546634,7.0,2.500000000000000));
#168=VERTEX_POINT('',#167);
#169=CARTESIAN_POINT('',(-11.388037984510914,-7.0,2.500000000000000));
#170=DIRECTION('',(-0.258819045102521,0.965925826289068,0.0));
#171=VECTOR('',#170,14.493866525741163);
#172=LINE('',#169,#171);
#173=EDGE_CURVE('',#166,#168,#172,.T.);
#174=ORIENTED_EDGE('',*,*,#173,.T.);
#175=CARTESIAN_POINT('',(-15.139326678546634,7.0,-2.500000000000000));
#176=DIRECTION('',(0.0,0.0,1.0));
#177=VECTOR('',#176,5.0);
#178=LINE('',#175,#177);
#179=EDGE_CURVE('',#141,#168,#178,.T.);
#180=ORIENTED_EDGE('',*,*,#179,.F.);
#181=ORIENTED_EDGE('',*,*,#146,.T.);
#182=CARTESIAN_POINT('',(-11.388037984510914,-7.0,2.500000000000000));
#183=DIRECTION('',(0.0,0.0,-1.0));
#184=VECTOR('',#183,5.0);
#185=LINE('',#182,#184);
#186=EDGE_CURVE('',#166,#133,#185,.T.);
#187=ORIENTED_EDGE('',*,*,#186,.F.);
#188=EDGE_LOOP('',(#174,#180,#181,#187));
#189=FACE_OUTER_BOUND('',#188,.T.);
#190=ADVANCED_FACE('',(#189),#164,.T.);
#191=CARTESIAN_POINT('',(-15.139326678546634,7.0,0.0));
#192=DIRECTION('',(0.0,1.0,0.0));
#193=DIRECTION('',(0.0,0.0,1.0));
#194=AXIS2_PLACEMENT_3D('',#191,#192,#193);
#195=PLANE('',#194);
#196=CARTESIAN_POINT('',(7.636749290475198,7.000000000000002,2.500000000000000));
#197=VERTEX_POINT('',#196);
#198=CARTESIAN_POINT('',(-15.139326678546634,7.0,2.500000000000000));
#199=DIRECTION('',(1.0,0.0,0.0));
#200=VECTOR('',#199,22.776075969021832);
#201=LINE('',#198,#200);
#202=EDGE_CURVE('',#168,#197,#201,.T.);
#203=ORIENTED_EDGE('',*,*,#202,.T.);
#204=CARTESIAN_POINT('',(7.636749290475198,7.000000000000002,-2.500000000000000));
#205=DIRECTION('',(0.0,0.0,1.0));
#206=VECTOR('',#205,5.0);
#207=LINE('',#204,#206);
#208=EDGE_CURVE('',#125,#197,#207,.T.);
#209=ORIENTED_EDGE('',*,*,#208,.F.);
#210=ORIENTED_EDGE('',*,*,#152,.T.);
#211=ORIENTED_EDGE('',*,*,#179,.T.);
#212=EDGE_LOOP('',(#203,#209,#210,#211));
#213=FACE_OUTER_BOUND('',#212,.T.);
#214=ADVANCED_FACE('',(#213),#195,.T.);
#215=CARTESIAN_POINT('',(7.636749290475198,7.000000000000002,0.0));
#216=DIRECTION('',(0.965925826289068,0.258819045102521,0.0));
#217=DIRECTION('',(0.0,0.0,-1.0));
#218=AXIS2_PLACEMENT_3D('',#215,#216,#217);
#219=PLANE('',#218);
#220=CARTESIAN_POINT('',(11.388037984510914,-7.0,2.500000000000000));
#221=VERTEX_POINT('',#220);
#222=CARTESIAN_POINT('',(7.636749290475198,7.0,2.500000000000000));
#223=DIRECTION('',(0.258819045102521,-0.965925826289068,0.0));
#224=VECTOR('',#223,14.493866525741163);
#225=LINE('',#222,#224);
#226=EDGE_CURVE('',#197,#221,#225,.T.);
#227=ORIENTED_EDGE('',*,*,#226,.T.);
#228=CARTESIAN_POINT('',(11.388037984510914,-7.0,-2.500000000000000));
#229=DIRECTION('',(0.0,0.0,1.0));
#230=VECTOR('',#229,5.0);
#231=LINE('',#228,#230);
#232=EDGE_CURVE('',#123,#221,#231,.T.);
#233=ORIENTED_EDGE('',*,*,#232,.F.);
#234=ORIENTED_EDGE('',*,*,#130,.T.);
#235=ORIENTED_EDGE('',*,*,#208,.T.);
#236=EDGE_LOOP('',(#227,#233,#234,#235));
#237=FACE_OUTER_BOUND('',#236,.T.);
#238=ADVANCED_FACE('',(#237),#219,.T.);
#239=CARTESIAN_POINT('',(11.388037984510914,-7.0,0.0));
#240=DIRECTION('',(0.0,-1.0,0.0));
#241=DIRECTION('',(0.0,0.0,-1.0));
#242=AXIS2_PLACEMENT_3D('',#239,#240,#241);
#243=PLANE('',#242);
#244=CARTESIAN_POINT('',(11.388037984510914,-7.0,2.500000000000000));
#245=DIRECTION('',(-1.0,0.0,0.0));
#246=VECTOR('',#245,22.776075969021829);
#247=LINE('',#244,#246);
#248=EDGE_CURVE('',#221,#166,#247,.T.);
#249=ORIENTED_EDGE('',*,*,#248,.T.);
#250=ORIENTED_EDGE('',*,*,#186,.T.);
#251=ORIENTED_EDGE('',*,*,#138,.T.);
#252=ORIENTED_EDGE('',*,*,#232,.T.);
#253=EDGE_LOOP('',(#249,#250,#251,#252));
#254=FACE_OUTER_BOUND('',#253,.T.);
#255=ADVANCED_FACE('',(#254),#243,.T.);
#256=CARTESIAN_POINT('',(-1.875644347017860,8.747212E-016,2.500000000000000));
#257=DIRECTION('',(0.0,0.0,1.0));
#258=DIRECTION('',(1.0,0.0,0.0));
#259=AXIS2_PLACEMENT_3D('',#256,#257,#258);
#260=PLANE('',#259);
#261=ORIENTED_EDGE('',*,*,#173,.F.);
#262=ORIENTED_EDGE('',*,*,#248,.F.);
#263=ORIENTED_EDGE('',*,*,#226,.F.);
#264=ORIENTED_EDGE('',*,*,#202,.F.);
#265=EDGE_LOOP('',(#261,#262,#263,#264));
#266=FACE_OUTER_BOUND('',#265,.T.);
#267=ORIENTED_EDGE('',*,*,#112,.T.);
#268=EDGE_LOOP('',(#267));
#269=FACE_BOUND('',#268,.T.);
#270=ADVANCED_FACE('',(#266,#269),#260,.T.);
#271=CLOSED_SHELL('',(#116,#159,#190,#214,#238,#255,#270));
#272=MANIFOLD_SOLID_BREP('Volumenk\S\vrper1',#271);
#273=COLOUR_RGB('Standard',0.752941012382507,0.752941012382507,0.752941012382507);
#274=FILL_AREA_STYLE_COLOUR('Standard',#273);
#275=FILL_AREA_STYLE('Standard',(#274));
#276=SURFACE_STYLE_FILL_AREA(#275);
#277=SURFACE_SIDE_STYLE('Standard',(#276));
#278=SURFACE_STYLE_USAGE(.BOTH.,#277);
#279=PRESENTATION_STYLE_ASSIGNMENT((#278));
#280=STYLED_ITEM('',(#279),#272);
#281=MECHANICAL_DESIGN_GEOMETRIC_PRESENTATION_REPRESENTATION('',(#280),#36);
#282=ADVANCED_BREP_SHAPE_REPRESENTATION('ABSR',(#272),#36);
#283=SHAPE_REPRESENTATION_RELATIONSHIP('SRR','None',#282,#41);
ENDSEC;
END-ISO-10303-21;
