ISO-10303-21;
HEADER;
/* Generated by software containing ST-Developer
 * from STEP Tools, Inc. (www.steptools.com) 
 */

FILE_DESCRIPTION(
/* description */ (''),
/* implementation_level */ '2;1');

FILE_NAME(
/* name */ 'C:\\Users\\mdebiase\\Desktop\\baricentro\\ODV025.ipt.stp',
/* time_stamp */ '2014-06-06T15:27:00+02:00',
/* author */ ('bfaro'),
/* organization */ (''),
/* preprocessor_version */ 'ST-DEVELOPER v15.6',
/* originating_system */ 'Autodesk Inventor 2015',
/* authorisation */ '');

FILE_SCHEMA (('AUTOMOTIVE_DESIGN { 1 0 10303 214 3 1 1 }'));
ENDSEC;

DATA;
#10=MECHANICAL_DESIGN_GEOMETRIC_PRESENTATION_REPRESENTATION('',(#13),#239);
#11=SHAPE_REPRESENTATION_RELATIONSHIP('SRR','None',#248,#12);
#12=ADVANCED_BREP_SHAPE_REPRESENTATION($,(#14),#238);
#13=STYLED_ITEM('',(#257),#14);
#14=MANIFOLD_SOLID_BREP('Solido1',#139);
#15=PLANE('',#159);
#16=PLANE('',#160);
#17=FACE_BOUND('',#42,.T.);
#18=FACE_BOUND('',#44,.T.);
#19=FACE_BOUND('',#46,.T.);
#20=FACE_BOUND('',#48,.T.);
#21=FACE_BOUND('',#50,.T.);
#22=FACE_BOUND('',#52,.T.);
#23=FACE_BOUND('',#54,.T.);
#24=FACE_BOUND('',#55,.T.);
#25=FACE_BOUND('',#56,.T.);
#26=FACE_BOUND('',#57,.T.);
#27=FACE_BOUND('',#58,.T.);
#28=FACE_BOUND('',#60,.T.);
#29=FACE_BOUND('',#61,.T.);
#30=FACE_BOUND('',#62,.T.);
#31=FACE_BOUND('',#63,.T.);
#32=FACE_BOUND('',#64,.T.);
#33=FACE_OUTER_BOUND('',#41,.T.);
#34=FACE_OUTER_BOUND('',#43,.T.);
#35=FACE_OUTER_BOUND('',#45,.T.);
#36=FACE_OUTER_BOUND('',#47,.T.);
#37=FACE_OUTER_BOUND('',#49,.T.);
#38=FACE_OUTER_BOUND('',#51,.T.);
#39=FACE_OUTER_BOUND('',#53,.T.);
#40=FACE_OUTER_BOUND('',#59,.T.);
#41=EDGE_LOOP('',(#101));
#42=EDGE_LOOP('',(#102));
#43=EDGE_LOOP('',(#103));
#44=EDGE_LOOP('',(#104));
#45=EDGE_LOOP('',(#105));
#46=EDGE_LOOP('',(#106));
#47=EDGE_LOOP('',(#107));
#48=EDGE_LOOP('',(#108));
#49=EDGE_LOOP('',(#109));
#50=EDGE_LOOP('',(#110));
#51=EDGE_LOOP('',(#111));
#52=EDGE_LOOP('',(#112));
#53=EDGE_LOOP('',(#113));
#54=EDGE_LOOP('',(#114));
#55=EDGE_LOOP('',(#115));
#56=EDGE_LOOP('',(#116));
#57=EDGE_LOOP('',(#117));
#58=EDGE_LOOP('',(#118));
#59=EDGE_LOOP('',(#119));
#60=EDGE_LOOP('',(#120));
#61=EDGE_LOOP('',(#121));
#62=EDGE_LOOP('',(#122));
#63=EDGE_LOOP('',(#123));
#64=EDGE_LOOP('',(#124));
#65=CIRCLE('',#142,7.);
#66=CIRCLE('',#143,7.);
#67=CIRCLE('',#145,7.);
#68=CIRCLE('',#146,7.);
#69=CIRCLE('',#148,7.);
#70=CIRCLE('',#149,7.);
#71=CIRCLE('',#151,7.);
#72=CIRCLE('',#152,7.);
#73=CIRCLE('',#154,17.);
#74=CIRCLE('',#155,17.);
#75=CIRCLE('',#157,53.5);
#76=CIRCLE('',#158,53.5);
#77=VERTEX_POINT('',#205);
#78=VERTEX_POINT('',#207);
#79=VERTEX_POINT('',#210);
#80=VERTEX_POINT('',#212);
#81=VERTEX_POINT('',#215);
#82=VERTEX_POINT('',#217);
#83=VERTEX_POINT('',#220);
#84=VERTEX_POINT('',#222);
#85=VERTEX_POINT('',#225);
#86=VERTEX_POINT('',#227);
#87=VERTEX_POINT('',#230);
#88=VERTEX_POINT('',#232);
#89=EDGE_CURVE('',#77,#77,#65,.T.);
#90=EDGE_CURVE('',#78,#78,#66,.T.);
#91=EDGE_CURVE('',#79,#79,#67,.T.);
#92=EDGE_CURVE('',#80,#80,#68,.T.);
#93=EDGE_CURVE('',#81,#81,#69,.T.);
#94=EDGE_CURVE('',#82,#82,#70,.T.);
#95=EDGE_CURVE('',#83,#83,#71,.T.);
#96=EDGE_CURVE('',#84,#84,#72,.T.);
#97=EDGE_CURVE('',#85,#85,#73,.T.);
#98=EDGE_CURVE('',#86,#86,#74,.T.);
#99=EDGE_CURVE('',#87,#87,#75,.T.);
#100=EDGE_CURVE('',#88,#88,#76,.T.);
#101=ORIENTED_EDGE('',*,*,#89,.F.);
#102=ORIENTED_EDGE('',*,*,#90,.F.);
#103=ORIENTED_EDGE('',*,*,#91,.F.);
#104=ORIENTED_EDGE('',*,*,#92,.F.);
#105=ORIENTED_EDGE('',*,*,#93,.F.);
#106=ORIENTED_EDGE('',*,*,#94,.F.);
#107=ORIENTED_EDGE('',*,*,#95,.F.);
#108=ORIENTED_EDGE('',*,*,#96,.F.);
#109=ORIENTED_EDGE('',*,*,#97,.F.);
#110=ORIENTED_EDGE('',*,*,#98,.F.);
#111=ORIENTED_EDGE('',*,*,#99,.T.);
#112=ORIENTED_EDGE('',*,*,#100,.T.);
#113=ORIENTED_EDGE('',*,*,#99,.F.);
#114=ORIENTED_EDGE('',*,*,#90,.T.);
#115=ORIENTED_EDGE('',*,*,#92,.T.);
#116=ORIENTED_EDGE('',*,*,#94,.T.);
#117=ORIENTED_EDGE('',*,*,#96,.T.);
#118=ORIENTED_EDGE('',*,*,#98,.T.);
#119=ORIENTED_EDGE('',*,*,#100,.F.);
#120=ORIENTED_EDGE('',*,*,#89,.T.);
#121=ORIENTED_EDGE('',*,*,#91,.T.);
#122=ORIENTED_EDGE('',*,*,#93,.T.);
#123=ORIENTED_EDGE('',*,*,#95,.T.);
#124=ORIENTED_EDGE('',*,*,#97,.T.);
#125=CYLINDRICAL_SURFACE('',#141,7.);
#126=CYLINDRICAL_SURFACE('',#144,7.);
#127=CYLINDRICAL_SURFACE('',#147,7.);
#128=CYLINDRICAL_SURFACE('',#150,6.99999999999999);
#129=CYLINDRICAL_SURFACE('',#153,17.);
#130=CYLINDRICAL_SURFACE('',#156,53.5);
#131=ADVANCED_FACE('',(#33,#17),#125,.F.);
#132=ADVANCED_FACE('',(#34,#18),#126,.F.);
#133=ADVANCED_FACE('',(#35,#19),#127,.F.);
#134=ADVANCED_FACE('',(#36,#20),#128,.F.);
#135=ADVANCED_FACE('',(#37,#21),#129,.F.);
#136=ADVANCED_FACE('',(#38,#22),#130,.T.);
#137=ADVANCED_FACE('',(#39,#23,#24,#25,#26,#27),#15,.T.);
#138=ADVANCED_FACE('',(#40,#28,#29,#30,#31,#32),#16,.T.);
#139=CLOSED_SHELL('',(#131,#132,#133,#134,#135,#136,#137,#138));
#140=AXIS2_PLACEMENT_3D('placement',#203,#161,#162);
#141=AXIS2_PLACEMENT_3D('',#204,#163,#164);
#142=AXIS2_PLACEMENT_3D('',#206,#165,#166);
#143=AXIS2_PLACEMENT_3D('',#208,#167,#168);
#144=AXIS2_PLACEMENT_3D('',#209,#169,#170);
#145=AXIS2_PLACEMENT_3D('',#211,#171,#172);
#146=AXIS2_PLACEMENT_3D('',#213,#173,#174);
#147=AXIS2_PLACEMENT_3D('',#214,#175,#176);
#148=AXIS2_PLACEMENT_3D('',#216,#177,#178);
#149=AXIS2_PLACEMENT_3D('',#218,#179,#180);
#150=AXIS2_PLACEMENT_3D('',#219,#181,#182);
#151=AXIS2_PLACEMENT_3D('',#221,#183,#184);
#152=AXIS2_PLACEMENT_3D('',#223,#185,#186);
#153=AXIS2_PLACEMENT_3D('',#224,#187,#188);
#154=AXIS2_PLACEMENT_3D('',#226,#189,#190);
#155=AXIS2_PLACEMENT_3D('',#228,#191,#192);
#156=AXIS2_PLACEMENT_3D('',#229,#193,#194);
#157=AXIS2_PLACEMENT_3D('',#231,#195,#196);
#158=AXIS2_PLACEMENT_3D('',#233,#197,#198);
#159=AXIS2_PLACEMENT_3D('',#234,#199,#200);
#160=AXIS2_PLACEMENT_3D('',#235,#201,#202);
#161=DIRECTION('axis',(0.,0.,1.));
#162=DIRECTION('refdir',(1.,0.,0.));
#163=DIRECTION('center_axis',(1.,0.,0.));
#164=DIRECTION('ref_axis',(0.,-0.707106781186548,0.707106781186547));
#165=DIRECTION('center_axis',(-1.,0.,0.));
#166=DIRECTION('ref_axis',(0.,-0.707106781186548,0.707106781186547));
#167=DIRECTION('center_axis',(1.,0.,0.));
#168=DIRECTION('ref_axis',(0.,-0.707106781186548,0.707106781186547));
#169=DIRECTION('center_axis',(1.,0.,0.));
#170=DIRECTION('ref_axis',(0.,-0.707106781186548,-0.707106781186548));
#171=DIRECTION('center_axis',(-1.,0.,0.));
#172=DIRECTION('ref_axis',(0.,-0.707106781186547,-0.707106781186548));
#173=DIRECTION('center_axis',(1.,0.,0.));
#174=DIRECTION('ref_axis',(0.,-0.707106781186547,-0.707106781186548));
#175=DIRECTION('center_axis',(1.,0.,0.));
#176=DIRECTION('ref_axis',(0.,0.707106781186548,-0.707106781186548));
#177=DIRECTION('center_axis',(-1.,0.,0.));
#178=DIRECTION('ref_axis',(0.,0.707106781186548,-0.707106781186547));
#179=DIRECTION('center_axis',(1.,0.,0.));
#180=DIRECTION('ref_axis',(0.,0.707106781186548,-0.707106781186547));
#181=DIRECTION('center_axis',(1.,0.,0.));
#182=DIRECTION('ref_axis',(0.,0.707106781186547,0.707106781186548));
#183=DIRECTION('center_axis',(-1.,0.,0.));
#184=DIRECTION('ref_axis',(0.,0.707106781186547,0.707106781186548));
#185=DIRECTION('center_axis',(1.,0.,0.));
#186=DIRECTION('ref_axis',(0.,0.707106781186547,0.707106781186548));
#187=DIRECTION('center_axis',(1.,0.,0.));
#188=DIRECTION('ref_axis',(0.,0.707106781186548,-0.707106781186547));
#189=DIRECTION('center_axis',(-1.,0.,0.));
#190=DIRECTION('ref_axis',(0.,0.707106781186548,-0.707106781186547));
#191=DIRECTION('center_axis',(1.,0.,0.));
#192=DIRECTION('ref_axis',(0.,0.707106781186548,-0.707106781186547));
#193=DIRECTION('center_axis',(1.,0.,0.));
#194=DIRECTION('ref_axis',(0.,0.707106781186548,-0.707106781186547));
#195=DIRECTION('center_axis',(1.,0.,0.));
#196=DIRECTION('ref_axis',(0.,0.707106781186548,-0.707106781186547));
#197=DIRECTION('center_axis',(-1.,0.,0.));
#198=DIRECTION('ref_axis',(0.,0.707106781186548,-0.707106781186547));
#199=DIRECTION('center_axis',(-1.,0.,0.));
#200=DIRECTION('ref_axis',(0.,-0.707106781186548,0.707106781186547));
#201=DIRECTION('center_axis',(1.,0.,0.));
#202=DIRECTION('ref_axis',(0.,0.707106781186548,-0.707106781186548));
#203=CARTESIAN_POINT('',(0.,0.,0.));
#204=CARTESIAN_POINT('Origin',(4.00604012185113E-7,-26.5165043828975,-26.5165043828975));
#205=CARTESIAN_POINT('',(6.00000040060401,-21.5667569145917,-31.4662518512033));
#206=CARTESIAN_POINT('Origin',(6.00000040060401,-26.5165043828975,-26.5165043828975));
#207=CARTESIAN_POINT('',(-5.999999599396,-21.5667569145917,-31.4662518512033));
#208=CARTESIAN_POINT('Origin',(-5.999999599396,-26.5165043828975,-26.5165043828975));
#209=CARTESIAN_POINT('Origin',(4.00604012185113E-7,26.5165042060936,-26.5165043828975));
#210=CARTESIAN_POINT('',(6.00000040060401,31.4662516743994,-21.5667569145916));
#211=CARTESIAN_POINT('Origin',(6.00000040060401,26.5165042060936,-26.5165043828975));
#212=CARTESIAN_POINT('',(-5.999999599396,31.4662516743994,-21.5667569145916));
#213=CARTESIAN_POINT('Origin',(-5.999999599396,26.5165042060936,-26.5165043828975));
#214=CARTESIAN_POINT('Origin',(4.00604012185113E-7,26.5165042060935,26.5165042060935));
#215=CARTESIAN_POINT('',(6.00000040060401,21.5667567377877,31.4662516743994));
#216=CARTESIAN_POINT('Origin',(6.00000040060401,26.5165042060935,26.5165042060935));
#217=CARTESIAN_POINT('',(-5.999999599396,21.5667567377877,31.4662516743994));
#218=CARTESIAN_POINT('Origin',(-5.999999599396,26.5165042060935,26.5165042060935));
#219=CARTESIAN_POINT('Origin',(4.00604012185113E-7,-26.5165043828975,26.5165042060936));
#220=CARTESIAN_POINT('',(6.00000040060401,-31.4662518512033,21.5667567377878));
#221=CARTESIAN_POINT('Origin',(6.00000040060401,-26.5165043828975,26.5165042060936));
#222=CARTESIAN_POINT('',(-5.999999599396,-31.4662518512033,21.5667567377878));
#223=CARTESIAN_POINT('Origin',(-5.999999599396,-26.5165043828975,26.5165042060936));
#224=CARTESIAN_POINT('Origin',(4.00604012185113E-7,-8.84019524249879E-8,
-8.84019435432037E-8));
#225=CARTESIAN_POINT('',(6.00000040060401,-12.0208153685733,12.0208151917694));
#226=CARTESIAN_POINT('Origin',(6.00000040060401,-8.84019524249879E-8,-8.84019435432037E-8));
#227=CARTESIAN_POINT('',(-5.999999599396,-12.0208153685733,12.0208151917694));
#228=CARTESIAN_POINT('Origin',(-5.999999599396,-8.84019524249879E-8,-8.84019435432037E-8));
#229=CARTESIAN_POINT('Origin',(-5.999999599396,-8.84019524249879E-8,-8.84019435432037E-8));
#230=CARTESIAN_POINT('',(-5.999999599396,-37.8302128818822,37.8302127050784));
#231=CARTESIAN_POINT('Origin',(-5.999999599396,-8.84019524249879E-8,-8.84019435432037E-8));
#232=CARTESIAN_POINT('',(6.00000040060401,-37.8302128818822,37.8302127050784));
#233=CARTESIAN_POINT('Origin',(6.00000040060401,-8.84019524249879E-8,-8.84019435432037E-8));
#234=CARTESIAN_POINT('Origin',(-5.999999599396,-8.84019790703405E-8,-8.84020590063983E-8));
#235=CARTESIAN_POINT('Origin',(6.00000040060401,37.8302127050784,-37.8302128818822));
#236=UNCERTAINTY_MEASURE_WITH_UNIT(LENGTH_MEASURE(0.01),#240,
'DISTANCE_ACCURACY_VALUE',
'Maximum model space distance between geometric entities at asserted c
onnectivities');
#237=UNCERTAINTY_MEASURE_WITH_UNIT(LENGTH_MEASURE(1.E-6),#240,
'DISTANCE_ACCURACY_VALUE',
'Maximum model space distance between geometric entities at asserted c
onnectivities');
#238=(
GEOMETRIC_REPRESENTATION_CONTEXT(3)
GLOBAL_UNCERTAINTY_ASSIGNED_CONTEXT((#236))
GLOBAL_UNIT_ASSIGNED_CONTEXT((#240,#243,#241))
REPRESENTATION_CONTEXT('','3D')
);
#239=(
GEOMETRIC_REPRESENTATION_CONTEXT(3)
GLOBAL_UNCERTAINTY_ASSIGNED_CONTEXT((#237))
GLOBAL_UNIT_ASSIGNED_CONTEXT((#240,#243,#241))
REPRESENTATION_CONTEXT('','3D')
);
#240=(
LENGTH_UNIT()
NAMED_UNIT(*)
SI_UNIT(.MILLI.,.METRE.)
);
#241=(
NAMED_UNIT(*)
SI_UNIT($,.STERADIAN.)
SOLID_ANGLE_UNIT()
);
#242=DIMENSIONAL_EXPONENTS(0.,0.,0.,0.,0.,0.,0.);
#243=(
CONVERSION_BASED_UNIT('degree',#245)
NAMED_UNIT(#242)
PLANE_ANGLE_UNIT()
);
#244=(
NAMED_UNIT(*)
PLANE_ANGLE_UNIT()
SI_UNIT($,.RADIAN.)
);
#245=PLANE_ANGLE_MEASURE_WITH_UNIT(PLANE_ANGLE_MEASURE(0.01745329252),#244);
#246=SHAPE_DEFINITION_REPRESENTATION(#247,#248);
#247=PRODUCT_DEFINITION_SHAPE('',$,#250);
#248=SHAPE_REPRESENTATION('',(#140),#238);
#249=PRODUCT_DEFINITION_CONTEXT('part definition',#254,'design');
#250=PRODUCT_DEFINITION('ODV025','ODV025',#251,#249);
#251=PRODUCT_DEFINITION_FORMATION('',$,#256);
#252=PRODUCT_RELATED_PRODUCT_CATEGORY('ODV025','ODV025',(#256));
#253=APPLICATION_PROTOCOL_DEFINITION('international standard',
'automotive_design',2009,#254);
#254=APPLICATION_CONTEXT(
'Core Data for Automotive Mechanical Design Process');
#255=PRODUCT_CONTEXT('part definition',#254,'mechanical');
#256=PRODUCT('ODV025','ODV025',$,(#255));
#257=PRESENTATION_STYLE_ASSIGNMENT((#258));
#258=SURFACE_STYLE_USAGE(.BOTH.,#259);
#259=SURFACE_SIDE_STYLE($,(#260));
#260=SURFACE_STYLE_FILL_AREA(#261);
#261=FILL_AREA_STYLE($,(#262));
#262=FILL_AREA_STYLE_COLOUR($,#263);
#263=COLOUR_RGB('',0.509803921568627,0.509803921568627,0.588235294117647);
ENDSEC;
END-ISO-10303-21;
