ISO-10303-21;
HEADER;
FILE_DESCRIPTION( ( 'STEP AP203' ), '1' );
FILE_NAME( 'p:/temp/worker_81/temp/exporttempdir_292_66_UZgOV/format_0/30053007507(architecture400).stp', '2022-04-08T11:20:37', ( 'License CC BY-ND 4.0' ), ( 'CADENAS' ), ' ', 'PARTsolutions', ' ' );
FILE_SCHEMA( ( 'CONFIG_CONTROL_DESIGN' ) );
ENDSEC;
DATA;
#1 = DESIGN_CONTEXT( '', #27, 'design' );
#2 = APPLICATION_PROTOCOL_DEFINITION( 'international standard', 'config_control_design', 1994, #27 );
#3 = PRODUCT_CATEGORY_RELATIONSHIP( 'NONE', 'NONE', #28, #29 );
#4 = DATE_AND_TIME( #30, #31 );
#5 = DATE_TIME_ROLE( 'creation_date' );
#6 = DATE_TIME_ROLE( 'classification_date' );
#7 = PERSON_AND_ORGANIZATION_ROLE( 'creator' );
#8 = PERSON_AND_ORGANIZATION_ROLE( 'design_supplier' );
#9 = PERSON_AND_ORGANIZATION_ROLE( 'classification_officer' );
#10 = PERSON_AND_ORGANIZATION_ROLE( 'design_owner' );
#11 = APPROVAL_PERSON_ORGANIZATION( #32, #33, #34 );
#12 = APPROVAL_DATE_TIME( #4, #33 );
#13 = CC_DESIGN_APPROVAL( #33, ( #35, #36, #37 ) );
#14 = CC_DESIGN_DATE_AND_TIME_ASSIGNMENT( #4, #5, ( #37 ) );
#15 = CC_DESIGN_DATE_AND_TIME_ASSIGNMENT( #4, #6, ( #35 ) );
#16 = CC_DESIGN_PERSON_AND_ORGANIZATION_ASSIGNMENT( #32, #10, ( #38 ) );
#17 = CC_DESIGN_PERSON_AND_ORGANIZATION_ASSIGNMENT( #32, #7, ( #37 ) );
#18 = CC_DESIGN_PERSON_AND_ORGANIZATION_ASSIGNMENT( #32, #7, ( #36 ) );
#19 = CC_DESIGN_PERSON_AND_ORGANIZATION_ASSIGNMENT( #32, #8, ( #36 ) );
#20 = CC_DESIGN_SECURITY_CLASSIFICATION( #35, ( #36 ) );
#21 = CC_DESIGN_PERSON_AND_ORGANIZATION_ASSIGNMENT( #32, #9, ( #35 ) );
#22 = SHAPE_DEFINITION_REPRESENTATION( #39, #40 );
#23 =  ( GEOMETRIC_REPRESENTATION_CONTEXT( 3 )GLOBAL_UNCERTAINTY_ASSIGNED_CONTEXT( ( #43 ) )GLOBAL_UNIT_ASSIGNED_CONTEXT( ( #45, #46, #47 ) )REPRESENTATION_CONTEXT( 'NONE', 'WORKSPACE' ) );
#27 = APPLICATION_CONTEXT( 'configuration controlled 3D designs of mechanical parts and assemblies' );
#28 = PRODUCT_CATEGORY( 'part', 'NONE' );
#29 = PRODUCT_RELATED_PRODUCT_CATEGORY( 'detail', ' ', ( #38 ) );
#30 = CALENDAR_DATE( 2022, 8, 3 );
#31 = LOCAL_TIME( 13, 20, 37.0000000000000, #49 );
#32 = PERSON_AND_ORGANIZATION( #50, #51 );
#33 = APPROVAL( #52, 'SOLID MODEL' );
#34 = APPROVAL_ROLE( 'APPROVED' );
#35 = SECURITY_CLASSIFICATION( '', '', #53 );
#36 = PRODUCT_DEFINITION_FORMATION_WITH_SPECIFIED_SOURCE( ' ', 'NONE', #38, .NOT_KNOWN. );
#37 = PRODUCT_DEFINITION( 'NONE', 'NONE', #36, #1 );
#38 = PRODUCT( '_30053007507(architecture400)', '_30053007507(architecture400)', 'PART-_30053007507(architecture400)-DESC', ( #54 ) );
#39 = PRODUCT_DEFINITION_SHAPE( 'NONE', 'NONE', #37 );
#40 = ADVANCED_BREP_SHAPE_REPRESENTATION( '_30053007507(architecture400)', ( #55, #56 ), #23 );
#43 = UNCERTAINTY_MEASURE_WITH_UNIT( LENGTH_MEASURE( 0.00100000000000000 ), #45, '', '' );
#45 =  ( CONVERSION_BASED_UNIT( 'MILLIMETRE', #59 )LENGTH_UNIT(  )NAMED_UNIT( #62 ) );
#46 =  ( NAMED_UNIT( #64 )PLANE_ANGLE_UNIT(  )SI_UNIT( $, .RADIAN. ) );
#47 =  ( NAMED_UNIT( #64 )SI_UNIT( $, .STERADIAN. )SOLID_ANGLE_UNIT(  ) );
#49 = COORDINATED_UNIVERSAL_TIME_OFFSET( 1, 0, .AHEAD. );
#50 = PERSON( '', 'UNSPECIFIED', $, $, $, $ );
#51 = ORGANIZATION( 'UNSPECIFIED', 'UNSPECIFIED', 'UNSPECIFIED' );
#52 = APPROVAL_STATUS( 'approved' );
#53 = SECURITY_CLASSIFICATION_LEVEL( 'unclassified' );
#54 = MECHANICAL_CONTEXT( '', #27, 'mechanical' );
#55 = MANIFOLD_SOLID_BREP( '_30053007507(architecture400)', #70 );
#56 = AXIS2_PLACEMENT_3D( '', #71, #72, #73 );
#59 = LENGTH_MEASURE_WITH_UNIT( LENGTH_MEASURE( 1.00000000000000 ), #74 );
#62 = DIMENSIONAL_EXPONENTS( 1.00000000000000, 0.000000000000000, 0.000000000000000, 0.000000000000000, 0.000000000000000, 0.000000000000000, 0.000000000000000 );
#64 = DIMENSIONAL_EXPONENTS( 0.000000000000000, 0.000000000000000, 0.000000000000000, 0.000000000000000, 0.000000000000000, 0.000000000000000, 0.000000000000000 );
#70 = CLOSED_SHELL( '', ( #75, #76, #77, #78, #79, #80, #81, #82, #83 ) );
#71 = CARTESIAN_POINT( '', ( 0.000000000000000, 0.000000000000000, 0.000000000000000 ) );
#72 = DIRECTION( '', ( 0.000000000000000, 0.000000000000000, 1.00000000000000 ) );
#73 = DIRECTION( '', ( 1.00000000000000, 0.000000000000000, 0.000000000000000 ) );
#74 =  ( LENGTH_UNIT(  )NAMED_UNIT( #62 )SI_UNIT( .MILLI., .METRE. ) );
#75 = ADVANCED_FACE( '', ( #85, #86 ), #87, .T. );
#76 = ADVANCED_FACE( '', ( #88, #89 ), #90, .T. );
#77 = ADVANCED_FACE( '', ( #91, #92 ), #93, .F. );
#78 = ADVANCED_FACE( '', ( #94, #95 ), #96, .T. );
#79 = ADVANCED_FACE( '', ( #97, #98 ), #99, .F. );
#80 = ADVANCED_FACE( '', ( #100, #101 ), #102, .T. );
#81 = ADVANCED_FACE( '', ( #103, #104 ), #105, .F. );
#82 = ADVANCED_FACE( '', ( #106, #107 ), #108, .T. );
#83 = ADVANCED_FACE( '', ( #109, #110 ), #111, .T. );
#85 = FACE_BOUND( '', #112, .T. );
#86 = FACE_OUTER_BOUND( '', #113, .T. );
#87 = CONICAL_SURFACE( '', #114, 46.0000000000000, 0.0242809414000000 );
#88 = FACE_BOUND( '', #115, .T. );
#89 = FACE_OUTER_BOUND( '', #116, .T. );
#90 = PLANE( '', #117 );
#91 = FACE_OUTER_BOUND( '', #118, .T. );
#92 = FACE_OUTER_BOUND( '', #119, .T. );
#93 = CYLINDRICAL_SURFACE( '', #120, 37.5000000000000 );
#94 = FACE_BOUND( '', #121, .T. );
#95 = FACE_OUTER_BOUND( '', #122, .T. );
#96 = PLANE( '', #123 );
#97 = FACE_OUTER_BOUND( '', #124, .T. );
#98 = FACE_OUTER_BOUND( '', #125, .T. );
#99 = CYLINDRICAL_SURFACE( '', #126, 34.6666666667000 );
#100 = FACE_OUTER_BOUND( '', #127, .T. );
#101 = FACE_BOUND( '', #128, .T. );
#102 = PLANE( '', #129 );
#103 = FACE_OUTER_BOUND( '', #130, .T. );
#104 = FACE_OUTER_BOUND( '', #131, .T. );
#105 = CYLINDRICAL_SURFACE( '', #132, 37.5000000000000 );
#106 = FACE_OUTER_BOUND( '', #133, .T. );
#107 = FACE_BOUND( '', #134, .T. );
#108 = PLANE( '', #135 );
#109 = FACE_OUTER_BOUND( '', #136, .T. );
#110 = FACE_BOUND( '', #137, .T. );
#111 = CONICAL_SURFACE( '', #138, 45.1500000000000, 0.0242809414000000 );
#112 = EDGE_LOOP( '', ( #139 ) );
#113 = EDGE_LOOP( '', ( #140 ) );
#114 = AXIS2_PLACEMENT_3D( '', #141, #142, #143 );
#115 = EDGE_LOOP( '', ( #144 ) );
#116 = EDGE_LOOP( '', ( #145 ) );
#117 = AXIS2_PLACEMENT_3D( '', #146, #147, #148 );
#118 = EDGE_LOOP( '', ( #149 ) );
#119 = EDGE_LOOP( '', ( #150 ) );
#120 = AXIS2_PLACEMENT_3D( '', #151, #152, #153 );
#121 = EDGE_LOOP( '', ( #154 ) );
#122 = EDGE_LOOP( '', ( #155 ) );
#123 = AXIS2_PLACEMENT_3D( '', #156, #157, #158 );
#124 = EDGE_LOOP( '', ( #159 ) );
#125 = EDGE_LOOP( '', ( #160 ) );
#126 = AXIS2_PLACEMENT_3D( '', #161, #162, #163 );
#127 = EDGE_LOOP( '', ( #164 ) );
#128 = EDGE_LOOP( '', ( #165 ) );
#129 = AXIS2_PLACEMENT_3D( '', #166, #167, #168 );
#130 = EDGE_LOOP( '', ( #169 ) );
#131 = EDGE_LOOP( '', ( #170 ) );
#132 = AXIS2_PLACEMENT_3D( '', #171, #172, #173 );
#133 = EDGE_LOOP( '', ( #174 ) );
#134 = EDGE_LOOP( '', ( #175 ) );
#135 = AXIS2_PLACEMENT_3D( '', #176, #177, #178 );
#136 = EDGE_LOOP( '', ( #179 ) );
#137 = EDGE_LOOP( '', ( #180 ) );
#138 = AXIS2_PLACEMENT_3D( '', #181, #182, #183 );
#139 = ORIENTED_EDGE( '', *, *, #184, .T. );
#140 = ORIENTED_EDGE( '', *, *, #185, .F. );
#141 = CARTESIAN_POINT( '', ( -2.50000000000000, 0.000000000000000, 0.000000000000000 ) );
#142 = DIRECTION( '', ( 1.00000000000000, -0.000000000000000, -0.000000000000000 ) );
#143 = DIRECTION( '', ( -0.000000000000000, 0.000000000000000, -1.00000000000000 ) );
#144 = ORIENTED_EDGE( '', *, *, #186, .T. );
#145 = ORIENTED_EDGE( '', *, *, #184, .F. );
#146 = CARTESIAN_POINT( '', ( -37.5000000000000, 45.1500000000000, 0.000000000000000 ) );
#147 = DIRECTION( '', ( -1.00000000000000, 0.000000000000000, 0.000000000000000 ) );
#148 = DIRECTION( '', ( 0.000000000000000, 0.000000000000000, 1.00000000000000 ) );
#149 = ORIENTED_EDGE( '', *, *, #187, .T. );
#150 = ORIENTED_EDGE( '', *, *, #186, .F. );
#151 = CARTESIAN_POINT( '', ( 32.5000000000000, 0.000000000000000, 0.000000000000000 ) );
#152 = DIRECTION( '', ( -1.00000000000000, -0.000000000000000, 0.000000000000000 ) );
#153 = DIRECTION( '', ( -0.000000000000000, 0.000000000000000, -1.00000000000000 ) );
#154 = ORIENTED_EDGE( '', *, *, #188, .T. );
#155 = ORIENTED_EDGE( '', *, *, #187, .F. );
#156 = CARTESIAN_POINT( '', ( -5.00000000000000, 37.5000000000000, 0.000000000000000 ) );
#157 = DIRECTION( '', ( -1.00000000000000, 0.000000000000000, 0.000000000000000 ) );
#158 = DIRECTION( '', ( 0.000000000000000, 0.000000000000000, 1.00000000000000 ) );
#159 = ORIENTED_EDGE( '', *, *, #189, .T. );
#160 = ORIENTED_EDGE( '', *, *, #188, .F. );
#161 = CARTESIAN_POINT( '', ( 32.5000000000000, 0.000000000000000, 0.000000000000000 ) );
#162 = DIRECTION( '', ( -1.00000000000000, -0.000000000000000, 0.000000000000000 ) );
#163 = DIRECTION( '', ( -0.000000000000000, 0.000000000000000, -1.00000000000000 ) );
#164 = ORIENTED_EDGE( '', *, *, #190, .T. );
#165 = ORIENTED_EDGE( '', *, *, #189, .F. );
#166 = CARTESIAN_POINT( '', ( 0.000000000000000, 34.6666666666667, 0.000000000000000 ) );
#167 = DIRECTION( '', ( 1.00000000000000, 0.000000000000000, -0.000000000000000 ) );
#168 = DIRECTION( '', ( -0.000000000000000, 0.000000000000000, -1.00000000000000 ) );
#169 = ORIENTED_EDGE( '', *, *, #191, .T. );
#170 = ORIENTED_EDGE( '', *, *, #190, .F. );
#171 = CARTESIAN_POINT( '', ( 32.5000000000000, 0.000000000000000, 0.000000000000000 ) );
#172 = DIRECTION( '', ( -1.00000000000000, -0.000000000000000, 0.000000000000000 ) );
#173 = DIRECTION( '', ( -0.000000000000000, 0.000000000000000, -1.00000000000000 ) );
#174 = ORIENTED_EDGE( '', *, *, #192, .T. );
#175 = ORIENTED_EDGE( '', *, *, #191, .F. );
#176 = CARTESIAN_POINT( '', ( 32.5000000000000, 37.5000000000000, 0.000000000000000 ) );
#177 = DIRECTION( '', ( 1.00000000000000, 0.000000000000000, -0.000000000000000 ) );
#178 = DIRECTION( '', ( -0.000000000000000, 0.000000000000000, -1.00000000000000 ) );
#179 = ORIENTED_EDGE( '', *, *, #185, .T. );
#180 = ORIENTED_EDGE( '', *, *, #192, .F. );
#181 = CARTESIAN_POINT( '', ( 32.5000000000000, 0.000000000000000, 0.000000000000000 ) );
#182 = DIRECTION( '', ( -1.00000000000000, 0.000000000000000, -0.000000000000000 ) );
#183 = DIRECTION( '', ( 0.000000000000000, 0.000000000000000, 1.00000000000000 ) );
#184 = EDGE_CURVE( '', #193, #193, #194, .T. );
#185 = EDGE_CURVE( '', #195, #195, #196, .T. );
#186 = EDGE_CURVE( '', #197, #197, #198, .T. );
#187 = EDGE_CURVE( '', #199, #199, #200, .T. );
#188 = EDGE_CURVE( '', #201, #201, #202, .T. );
#189 = EDGE_CURVE( '', #203, #203, #204, .T. );
#190 = EDGE_CURVE( '', #205, #205, #206, .T. );
#191 = EDGE_CURVE( '', #207, #207, #208, .T. );
#192 = EDGE_CURVE( '', #209, #209, #210, .T. );
#193 = VERTEX_POINT( '', #211 );
#194 = CIRCLE( '', #212, 45.1500000000000 );
#195 = VERTEX_POINT( '', #213 );
#196 = CIRCLE( '', #214, 46.0000000000000 );
#197 = VERTEX_POINT( '', #215 );
#198 = CIRCLE( '', #216, 37.5000000000000 );
#199 = VERTEX_POINT( '', #217 );
#200 = CIRCLE( '', #218, 37.5000000000000 );
#201 = VERTEX_POINT( '', #219 );
#202 = CIRCLE( '', #220, 34.6666666667000 );
#203 = VERTEX_POINT( '', #221 );
#204 = CIRCLE( '', #222, 34.6666666667000 );
#205 = VERTEX_POINT( '', #223 );
#206 = CIRCLE( '', #224, 37.5000000000000 );
#207 = VERTEX_POINT( '', #225 );
#208 = CIRCLE( '', #226, 37.5000000000000 );
#209 = VERTEX_POINT( '', #227 );
#210 = CIRCLE( '', #228, 45.1500000000000 );
#211 = CARTESIAN_POINT( '', ( -37.5000000000000, 0.000000000000000, -45.1500000000000 ) );
#212 = AXIS2_PLACEMENT_3D( '', #229, #230, #231 );
#213 = CARTESIAN_POINT( '', ( -2.50000000000000, 0.000000000000000, -46.0000000000000 ) );
#214 = AXIS2_PLACEMENT_3D( '', #232, #233, #234 );
#215 = CARTESIAN_POINT( '', ( -37.5000000000000, 0.000000000000000, -37.5000000000000 ) );
#216 = AXIS2_PLACEMENT_3D( '', #235, #236, #237 );
#217 = CARTESIAN_POINT( '', ( -5.00000000000000, 0.000000000000000, -37.5000000000000 ) );
#218 = AXIS2_PLACEMENT_3D( '', #238, #239, #240 );
#219 = CARTESIAN_POINT( '', ( -5.00000000000000, 0.000000000000000, -34.6666666666667 ) );
#220 = AXIS2_PLACEMENT_3D( '', #241, #242, #243 );
#221 = CARTESIAN_POINT( '', ( 0.000000000000000, 0.000000000000000, -34.6666666666667 ) );
#222 = AXIS2_PLACEMENT_3D( '', #244, #245, #246 );
#223 = CARTESIAN_POINT( '', ( 0.000000000000000, 0.000000000000000, -37.5000000000000 ) );
#224 = AXIS2_PLACEMENT_3D( '', #247, #248, #249 );
#225 = CARTESIAN_POINT( '', ( 32.5000000000000, 0.000000000000000, -37.5000000000000 ) );
#226 = AXIS2_PLACEMENT_3D( '', #250, #251, #252 );
#227 = CARTESIAN_POINT( '', ( 32.5000000000000, 0.000000000000000, -45.1500000000000 ) );
#228 = AXIS2_PLACEMENT_3D( '', #253, #254, #255 );
#229 = CARTESIAN_POINT( '', ( -37.5000000000000, 0.000000000000000, 0.000000000000000 ) );
#230 = DIRECTION( '', ( 1.00000000000000, 0.000000000000000, -0.000000000000000 ) );
#231 = DIRECTION( '', ( -0.000000000000000, 0.000000000000000, -1.00000000000000 ) );
#232 = CARTESIAN_POINT( '', ( -2.50000000000000, 0.000000000000000, 0.000000000000000 ) );
#233 = DIRECTION( '', ( 1.00000000000000, 0.000000000000000, -0.000000000000000 ) );
#234 = DIRECTION( '', ( -0.000000000000000, 0.000000000000000, -1.00000000000000 ) );
#235 = CARTESIAN_POINT( '', ( -37.5000000000000, 0.000000000000000, 0.000000000000000 ) );
#236 = DIRECTION( '', ( 1.00000000000000, 0.000000000000000, -0.000000000000000 ) );
#237 = DIRECTION( '', ( -0.000000000000000, 0.000000000000000, -1.00000000000000 ) );
#238 = CARTESIAN_POINT( '', ( -5.00000000000000, 0.000000000000000, 0.000000000000000 ) );
#239 = DIRECTION( '', ( 1.00000000000000, 0.000000000000000, -0.000000000000000 ) );
#240 = DIRECTION( '', ( -0.000000000000000, 0.000000000000000, -1.00000000000000 ) );
#241 = CARTESIAN_POINT( '', ( -5.00000000000000, 0.000000000000000, 0.000000000000000 ) );
#242 = DIRECTION( '', ( 1.00000000000000, 0.000000000000000, -0.000000000000000 ) );
#243 = DIRECTION( '', ( -0.000000000000000, 0.000000000000000, -1.00000000000000 ) );
#244 = CARTESIAN_POINT( '', ( 0.000000000000000, 0.000000000000000, 0.000000000000000 ) );
#245 = DIRECTION( '', ( 1.00000000000000, 0.000000000000000, -0.000000000000000 ) );
#246 = DIRECTION( '', ( -0.000000000000000, 0.000000000000000, -1.00000000000000 ) );
#247 = CARTESIAN_POINT( '', ( 0.000000000000000, 0.000000000000000, 0.000000000000000 ) );
#248 = DIRECTION( '', ( 1.00000000000000, 0.000000000000000, -0.000000000000000 ) );
#249 = DIRECTION( '', ( -0.000000000000000, 0.000000000000000, -1.00000000000000 ) );
#250 = CARTESIAN_POINT( '', ( 32.5000000000000, 0.000000000000000, 0.000000000000000 ) );
#251 = DIRECTION( '', ( 1.00000000000000, 0.000000000000000, -0.000000000000000 ) );
#252 = DIRECTION( '', ( -0.000000000000000, 0.000000000000000, -1.00000000000000 ) );
#253 = CARTESIAN_POINT( '', ( 32.5000000000000, 0.000000000000000, 0.000000000000000 ) );
#254 = DIRECTION( '', ( 1.00000000000000, 0.000000000000000, -0.000000000000000 ) );
#255 = DIRECTION( '', ( -0.000000000000000, 0.000000000000000, -1.00000000000000 ) );
ENDSEC;
END-ISO-10303-21;
