ISO-10303-21;
HEADER;
/* Generated by software containing ST-Developer
 * from STEP Tools, Inc. (www.steptools.com) 
 */

FILE_DESCRIPTION(
/* description */ (''),
/* implementation_level */ '2;1');

FILE_NAME(
/* name */ 
'Q:\\Ric010\\FF7\\FIPlastiCAD\\FIP\\Lavoro\\PVC Fittings\\PVC Fittings
 STEP\\TRIV\\TRIV075040.ipt.stp',
/* time_stamp */ '2013-10-01T14:56:35+02:00',
/* author */ ('bfaro'),
/* organization */ (''),
/* preprocessor_version */ 'ST-DEVELOPER v15.2',
/* originating_system */ 'Autodesk Inventor 2014',
/* authorisation */ '');

FILE_SCHEMA (('AUTOMOTIVE_DESIGN { 1 0 10303 214 3 1 1 }'));
ENDSEC;

DATA;
#10=SHAPE_REPRESENTATION_RELATIONSHIP('SRR','None',#451,#11);
#11=ADVANCED_BREP_SHAPE_REPRESENTATION($,(#181),#442);
#12=STYLED_ITEM($,(#459),#181);
#13=PLANE($,#202);
#14=PLANE($,#203);
#15=PLANE($,#204);
#16=PLANE($,#205);
#17=PLANE($,#206);
#18=PLANE($,#207);
#19=FACE_BOUND($,#53,.T.);
#20=FACE_BOUND($,#55,.T.);
#21=FACE_BOUND($,#56,.T.);
#22=FACE_BOUND($,#58,.T.);
#23=FACE_BOUND($,#59,.T.);
#24=FACE_BOUND($,#61,.T.);
#25=FACE_BOUND($,#63,.T.);
#26=FACE_BOUND($,#65,.T.);
#27=FACE_BOUND($,#67,.T.);
#28=FACE_BOUND($,#69,.T.);
#29=FACE_BOUND($,#70,.T.);
#30=FACE_BOUND($,#71,.T.);
#31=FACE_BOUND($,#73,.T.);
#32=FACE_BOUND($,#75,.T.);
#33=FACE_BOUND($,#76,.T.);
#34=FACE_BOUND($,#77,.T.);
#35=FACE_BOUND($,#78,.T.);
#36=FACE_BOUND($,#79,.T.);
#37=B_SPLINE_CURVE_WITH_KNOTS($,3,(#265,#266,#267,#268,#269,#270,#271,#272,
#273,#274,#275,#276,#277,#278,#279,#280,#281,#282,#283,#284,#285,#286,#287,
#288,#289,#290,#291,#292,#293,#294,#295,#296,#297,#298,#299,#300,#301,#302,
#303,#304,#305,#306,#307,#308,#309,#310,#311,#312,#313,#314,#315,#316,#317,
#318,#319,#320,#321,#322,#323,#324,#325,#326,#327,#328,#329,#330),
 .UNSPECIFIED.,.T.,.F.,(4,2,2,2,2,2,2,2,2,2,2,2,2,2,2,2,2,2,2,2,2,2,2,2,
2,2,2,2,2,2,2,2,4),(0.,0.367117001729368,0.734234003458736,1.1013510051881,
1.46846800691747,1.83421436045055,2.19996071398362,2.5657070675167,2.93145342104977,
3.29719977458285,3.66294612811593,4.028692481649,4.39443883518208,4.76155583691145,
5.12867283864081,5.49578984037018,5.86290684209955,6.2300238438215,6.59714084554344,
6.96425784726539,7.33137484898734,7.6971212025199,8.06286755605247,8.42861390958504,
8.7943602631176,9.16010661665017,9.52585297018274,9.8915993237153,10.2573456772479,
10.6244626789698,10.9915796806918,11.3586966824137,11.7258136841357),
 .UNSPECIFIED.);
#38=B_SPLINE_CURVE_WITH_KNOTS($,3,(#343,#344,#345,#346,#347,#348,#349,#350,
#351,#352,#353,#354,#355,#356,#357,#358,#359,#360),.UNSPECIFIED.,.F.,.F.,
(4,2,2,2,2,2,2,2,4),(7.72599613990238,8.2098928529143,8.69378956592622,
9.17768627893815,9.66158299195007,10.1434357964152,10.6252886008804,11.1071414053455,
11.5889942098106),.UNSPECIFIED.);
#39=B_SPLINE_CURVE_WITH_KNOTS($,3,(#362,#363,#364,#365,#366,#367,#368,#369,
#370,#371,#372,#373,#374,#375,#376,#377,#378,#379),.UNSPECIFIED.,.F.,.F.,
(4,2,2,2,2,2,2,2,4),(-7.72599613990238,-7.24209942688719,-6.75820271387199,
-6.2743060008568,-5.79040928784161,-5.308556483369,-4.8267036788964,-4.3448508744238,
-3.8629980699512),.UNSPECIFIED.);
#40=B_SPLINE_CURVE_WITH_KNOTS($,3,(#381,#382,#383,#384,#385,#386,#387,#388,
#389,#390,#391,#392,#393,#394,#395,#396,#397,#398),.UNSPECIFIED.,.F.,.F.,
(4,2,2,2,2,2,2,2,4),(11.5889942097677,12.0708470142403,12.5526998187129,
13.0345526231855,13.5164054276581,14.0003021406733,14.4841988536885,14.9680955667037,
15.4519922797189),.UNSPECIFIED.);
#41=B_SPLINE_CURVE_WITH_KNOTS($,3,(#399,#400,#401,#402,#403,#404,#405,#406,
#407,#408,#409,#410,#411,#412,#413,#414,#415,#416),.UNSPECIFIED.,.F.,.F.,
(4,2,2,2,2,2,2,2,4),(-3.86299806990825,-3.38114526544311,-2.89929246097796,
-2.41743965651282,-1.93558685204768,-1.45169013903576,-0.967793426023831,
-0.483896713011906,1.82076576038526E-014),.UNSPECIFIED.);
#42=FACE_OUTER_BOUND($,#52,.T.);
#43=FACE_OUTER_BOUND($,#54,.T.);
#44=FACE_OUTER_BOUND($,#57,.T.);
#45=FACE_OUTER_BOUND($,#60,.T.);
#46=FACE_OUTER_BOUND($,#62,.T.);
#47=FACE_OUTER_BOUND($,#64,.T.);
#48=FACE_OUTER_BOUND($,#66,.T.);
#49=FACE_OUTER_BOUND($,#68,.T.);
#50=FACE_OUTER_BOUND($,#72,.T.);
#51=FACE_OUTER_BOUND($,#74,.T.);
#52=EDGE_LOOP($,(#126));
#53=EDGE_LOOP($,(#127));
#54=EDGE_LOOP($,(#128));
#55=EDGE_LOOP($,(#129));
#56=EDGE_LOOP($,(#130));
#57=EDGE_LOOP($,(#131));
#58=EDGE_LOOP($,(#132));
#59=EDGE_LOOP($,(#133,#134,#135,#136));
#60=EDGE_LOOP($,(#137));
#61=EDGE_LOOP($,(#138));
#62=EDGE_LOOP($,(#139,#140,#141,#142));
#63=EDGE_LOOP($,(#143));
#64=EDGE_LOOP($,(#144));
#65=EDGE_LOOP($,(#145));
#66=EDGE_LOOP($,(#146));
#67=EDGE_LOOP($,(#147));
#68=EDGE_LOOP($,(#148));
#69=EDGE_LOOP($,(#149));
#70=EDGE_LOOP($,(#150));
#71=EDGE_LOOP($,(#151));
#72=EDGE_LOOP($,(#152));
#73=EDGE_LOOP($,(#153));
#74=EDGE_LOOP($,(#154));
#75=EDGE_LOOP($,(#155));
#76=EDGE_LOOP($,(#156));
#77=EDGE_LOOP($,(#157));
#78=EDGE_LOOP($,(#158));
#79=EDGE_LOOP($,(#159));
#80=CIRCLE($,#184,19.);
#81=CIRCLE($,#186,35.5);
#82=CIRCLE($,#187,35.5);
#83=CIRCLE($,#189,45.5);
#84=CIRCLE($,#190,45.5);
#85=CIRCLE($,#192,37.5);
#86=CIRCLE($,#193,37.5);
#87=CIRCLE($,#195,25.);
#88=CIRCLE($,#197,37.5);
#89=CIRCLE($,#198,37.5);
#90=CIRCLE($,#200,20.);
#91=CIRCLE($,#201,20.);
#92=VERTEX_POINT($,#262);
#93=VERTEX_POINT($,#264);
#94=VERTEX_POINT($,#332);
#95=VERTEX_POINT($,#334);
#96=VERTEX_POINT($,#337);
#97=VERTEX_POINT($,#339);
#98=VERTEX_POINT($,#341);
#99=VERTEX_POINT($,#342);
#100=VERTEX_POINT($,#361);
#101=VERTEX_POINT($,#380);
#102=VERTEX_POINT($,#418);
#103=VERTEX_POINT($,#420);
#104=VERTEX_POINT($,#423);
#105=VERTEX_POINT($,#426);
#106=VERTEX_POINT($,#428);
#107=VERTEX_POINT($,#431);
#108=VERTEX_POINT($,#433);
#109=EDGE_CURVE($,#92,#92,#80,.T.);
#110=EDGE_CURVE($,#93,#93,#37,.T.);
#111=EDGE_CURVE($,#94,#94,#81,.T.);
#112=EDGE_CURVE($,#95,#95,#82,.T.);
#113=EDGE_CURVE($,#96,#96,#83,.T.);
#114=EDGE_CURVE($,#97,#97,#84,.T.);
#115=EDGE_CURVE($,#98,#99,#38,.T.);
#116=EDGE_CURVE($,#98,#100,#39,.T.);
#117=EDGE_CURVE($,#100,#101,#40,.T.);
#118=EDGE_CURVE($,#99,#101,#41,.T.);
#119=EDGE_CURVE($,#102,#102,#85,.T.);
#120=EDGE_CURVE($,#103,#103,#86,.T.);
#121=EDGE_CURVE($,#104,#104,#87,.T.);
#122=EDGE_CURVE($,#105,#105,#88,.T.);
#123=EDGE_CURVE($,#106,#106,#89,.T.);
#124=EDGE_CURVE($,#107,#107,#90,.T.);
#125=EDGE_CURVE($,#108,#108,#91,.T.);
#126=ORIENTED_EDGE($,*,*,#109,.F.);
#127=ORIENTED_EDGE($,*,*,#110,.F.);
#128=ORIENTED_EDGE($,*,*,#111,.F.);
#129=ORIENTED_EDGE($,*,*,#112,.F.);
#130=ORIENTED_EDGE($,*,*,#110,.T.);
#131=ORIENTED_EDGE($,*,*,#113,.F.);
#132=ORIENTED_EDGE($,*,*,#114,.T.);
#133=ORIENTED_EDGE($,*,*,#115,.F.);
#134=ORIENTED_EDGE($,*,*,#116,.T.);
#135=ORIENTED_EDGE($,*,*,#117,.T.);
#136=ORIENTED_EDGE($,*,*,#118,.F.);
#137=ORIENTED_EDGE($,*,*,#119,.T.);
#138=ORIENTED_EDGE($,*,*,#120,.F.);
#139=ORIENTED_EDGE($,*,*,#116,.F.);
#140=ORIENTED_EDGE($,*,*,#115,.T.);
#141=ORIENTED_EDGE($,*,*,#118,.T.);
#142=ORIENTED_EDGE($,*,*,#117,.F.);
#143=ORIENTED_EDGE($,*,*,#121,.F.);
#144=ORIENTED_EDGE($,*,*,#122,.T.);
#145=ORIENTED_EDGE($,*,*,#123,.F.);
#146=ORIENTED_EDGE($,*,*,#124,.T.);
#147=ORIENTED_EDGE($,*,*,#125,.F.);
#148=ORIENTED_EDGE($,*,*,#114,.F.);
#149=ORIENTED_EDGE($,*,*,#120,.T.);
#150=ORIENTED_EDGE($,*,*,#112,.T.);
#151=ORIENTED_EDGE($,*,*,#119,.F.);
#152=ORIENTED_EDGE($,*,*,#113,.T.);
#153=ORIENTED_EDGE($,*,*,#122,.F.);
#154=ORIENTED_EDGE($,*,*,#121,.T.);
#155=ORIENTED_EDGE($,*,*,#124,.F.);
#156=ORIENTED_EDGE($,*,*,#111,.T.);
#157=ORIENTED_EDGE($,*,*,#123,.T.);
#158=ORIENTED_EDGE($,*,*,#109,.T.);
#159=ORIENTED_EDGE($,*,*,#125,.T.);
#160=CYLINDRICAL_SURFACE($,#183,19.);
#161=CYLINDRICAL_SURFACE($,#185,35.5);
#162=CYLINDRICAL_SURFACE($,#188,45.5);
#163=CYLINDRICAL_SURFACE($,#191,37.5);
#164=CYLINDRICAL_SURFACE($,#194,25.);
#165=CYLINDRICAL_SURFACE($,#196,37.5);
#166=CYLINDRICAL_SURFACE($,#199,20.);
#167=ADVANCED_FACE($,(#42,#19),#160,.F.);
#168=ADVANCED_FACE($,(#43,#20,#21),#161,.F.);
#169=ADVANCED_FACE($,(#44,#22,#23),#162,.T.);
#170=ADVANCED_FACE($,(#45,#24),#163,.F.);
#171=ADVANCED_FACE($,(#46,#25),#164,.T.);
#172=ADVANCED_FACE($,(#47,#26),#165,.F.);
#173=ADVANCED_FACE($,(#48,#27),#166,.F.);
#174=ADVANCED_FACE($,(#49,#28),#13,.T.);
#175=ADVANCED_FACE($,(#29,#30),#14,.T.);
#176=ADVANCED_FACE($,(#50,#31),#15,.T.);
#177=ADVANCED_FACE($,(#51,#32),#16,.T.);
#178=ADVANCED_FACE($,(#33,#34),#17,.T.);
#179=ADVANCED_FACE($,(#35,#36),#18,.T.);
#180=CLOSED_SHELL($,(#167,#168,#169,#170,#171,#172,#173,#174,#175,#176,
#177,#178,#179));
#181=MANIFOLD_SOLID_BREP('Solido1',#180);
#182=AXIS2_PLACEMENT_3D('placement',#260,#208,#209);
#183=AXIS2_PLACEMENT_3D($,#261,#210,#211);
#184=AXIS2_PLACEMENT_3D($,#263,#212,#213);
#185=AXIS2_PLACEMENT_3D($,#331,#214,#215);
#186=AXIS2_PLACEMENT_3D($,#333,#216,#217);
#187=AXIS2_PLACEMENT_3D($,#335,#218,#219);
#188=AXIS2_PLACEMENT_3D($,#336,#220,#221);
#189=AXIS2_PLACEMENT_3D($,#338,#222,#223);
#190=AXIS2_PLACEMENT_3D($,#340,#224,#225);
#191=AXIS2_PLACEMENT_3D($,#417,#226,#227);
#192=AXIS2_PLACEMENT_3D($,#419,#228,#229);
#193=AXIS2_PLACEMENT_3D($,#421,#230,#231);
#194=AXIS2_PLACEMENT_3D($,#422,#232,#233);
#195=AXIS2_PLACEMENT_3D($,#424,#234,#235);
#196=AXIS2_PLACEMENT_3D($,#425,#236,#237);
#197=AXIS2_PLACEMENT_3D($,#427,#238,#239);
#198=AXIS2_PLACEMENT_3D($,#429,#240,#241);
#199=AXIS2_PLACEMENT_3D($,#430,#242,#243);
#200=AXIS2_PLACEMENT_3D($,#432,#244,#245);
#201=AXIS2_PLACEMENT_3D($,#434,#246,#247);
#202=AXIS2_PLACEMENT_3D($,#435,#248,#249);
#203=AXIS2_PLACEMENT_3D($,#436,#250,#251);
#204=AXIS2_PLACEMENT_3D($,#437,#252,#253);
#205=AXIS2_PLACEMENT_3D($,#438,#254,#255);
#206=AXIS2_PLACEMENT_3D($,#439,#256,#257);
#207=AXIS2_PLACEMENT_3D($,#440,#258,#259);
#208=DIRECTION('axis',(0.,0.,1.));
#209=DIRECTION('refdir',(1.,0.,0.));
#210=DIRECTION('center_axis',(-1.,0.,-4.48966053822492E-011));
#211=DIRECTION('ref_axis',(-4.48966053822492E-011,0.,1.));
#212=DIRECTION('center_axis',(-1.,0.,-4.489664E-011));
#213=DIRECTION('ref_axis',(-4.48966053822492E-011,0.,1.));
#214=DIRECTION('center_axis',(0.,0.,-1.));
#215=DIRECTION('ref_axis',(-1.,0.,0.));
#216=DIRECTION('center_axis',(0.,0.,-1.));
#217=DIRECTION('ref_axis',(-1.,0.,0.));
#218=DIRECTION('center_axis',(0.,0.,1.));
#219=DIRECTION('ref_axis',(-1.,0.,0.));
#220=DIRECTION('center_axis',(0.,0.,1.));
#221=DIRECTION('ref_axis',(1.,0.,0.));
#222=DIRECTION('center_axis',(0.,0.,1.));
#223=DIRECTION('ref_axis',(1.,0.,0.));
#224=DIRECTION('center_axis',(0.,0.,1.));
#225=DIRECTION('ref_axis',(1.,0.,0.));
#226=DIRECTION('center_axis',(0.,0.,1.));
#227=DIRECTION('ref_axis',(1.,0.,0.));
#228=DIRECTION('center_axis',(0.,0.,1.));
#229=DIRECTION('ref_axis',(1.,0.,0.));
#230=DIRECTION('center_axis',(0.,0.,1.));
#231=DIRECTION('ref_axis',(1.,0.,0.));
#232=DIRECTION('center_axis',(1.,0.,4.489664E-011));
#233=DIRECTION('ref_axis',(4.489664E-011,0.,-1.));
#234=DIRECTION('center_axis',(1.,0.,4.489664E-011));
#235=DIRECTION('ref_axis',(4.489664E-011,0.,-1.));
#236=DIRECTION('center_axis',(0.,0.,1.));
#237=DIRECTION('ref_axis',(1.,0.,0.));
#238=DIRECTION('center_axis',(0.,0.,1.));
#239=DIRECTION('ref_axis',(1.,0.,0.));
#240=DIRECTION('center_axis',(0.,0.,1.));
#241=DIRECTION('ref_axis',(1.,0.,0.));
#242=DIRECTION('center_axis',(1.,-4.49146054330383E-015,4.48948725903023E-011));
#243=DIRECTION('ref_axis',(4.48947545805823E-011,0.,-1.));
#244=DIRECTION('center_axis',(1.,0.,4.489664E-011));
#245=DIRECTION('ref_axis',(4.489664E-011,0.,-1.));
#246=DIRECTION('center_axis',(1.,0.,4.489664E-011));
#247=DIRECTION('ref_axis',(4.489664E-011,0.,-1.));
#248=DIRECTION('center_axis',(0.,0.,-1.));
#249=DIRECTION('ref_axis',(-1.,0.,0.));
#250=DIRECTION('center_axis',(0.,0.,-1.));
#251=DIRECTION('ref_axis',(-1.,0.,0.));
#252=DIRECTION('center_axis',(0.,0.,1.));
#253=DIRECTION('ref_axis',(1.,0.,0.));
#254=DIRECTION('center_axis',(1.,0.,4.489664E-011));
#255=DIRECTION('ref_axis',(4.48963533017377E-011,0.,-1.));
#256=DIRECTION('center_axis',(0.,0.,1.));
#257=DIRECTION('ref_axis',(1.,0.,0.));
#258=DIRECTION('center_axis',(1.,0.,4.489664E-011));
#259=DIRECTION('ref_axis',(4.48963533017377E-011,0.,-1.));
#260=CARTESIAN_POINT('',(0.,0.,0.));
#261=CARTESIAN_POINT('Origin',(40.,0.,84.000000001796));
#262=CARTESIAN_POINT('',(40.000000000853,2.32682891837997E-015,65.000000001796));
#263=CARTESIAN_POINT('Origin',(40.,0.,84.000000001796));
#264=CARTESIAN_POINT('',(29.9874973947477,19.,84.0000000013465));
#265=CARTESIAN_POINT('Ctrl Pts',(29.9874973947477,19.,84.0000000013465));
#266=CARTESIAN_POINT('Ctrl Pts',(29.9874973947477,19.,85.2237233404444));
#267=CARTESIAN_POINT('Ctrl Pts',(30.0646281884736,18.8799441440479,86.4782061906345));
#268=CARTESIAN_POINT('Ctrl Pts',(30.3691612629348,18.3860872054645,88.954351074365));
#269=CARTESIAN_POINT('Ctrl Pts',(30.5959871861017,18.0125075905257,90.1761281232604));
#270=CARTESIAN_POINT('Ctrl Pts',(31.1499529063741,17.0365848670611,92.5058716718006));
#271=CARTESIAN_POINT('Ctrl Pts',(31.4767901281218,16.4334606880465,93.6161567071429));
#272=CARTESIAN_POINT('Ctrl Pts',(32.1619630965138,15.048424389152,95.6650770942062));
#273=CARTESIAN_POINT('Ctrl Pts',(32.5196787514554,14.2662889149472,96.6037687716059));
#274=CARTESIAN_POINT('Ctrl Pts',(33.1981515277269,12.6068723177541,98.2631853688212));
#275=CARTESIAN_POINT('Ctrl Pts',(33.5443142475052,11.6697399223817,99.0448560015481));
#276=CARTESIAN_POINT('Ctrl Pts',(34.188515394278,9.62025276707633,100.431106437657));
#277=CARTESIAN_POINT('Ctrl Pts',(34.4860849232674,8.50782235080576,101.035792245503));
#278=CARTESIAN_POINT('Ctrl Pts',(34.9794340238548,6.17351537458612,102.013577546429));
#279=CARTESIAN_POINT('Ctrl Pts',(35.1753440642889,4.94936266840783,102.387460920418));
#280=CARTESIAN_POINT('Ctrl Pts',(35.4357052804914,2.47220794898806,102.880759989727));
#281=CARTESIAN_POINT('Ctrl Pts',(35.5,1.21915451177692,103.000000001594));
#282=CARTESIAN_POINT('Ctrl Pts',(35.5,-1.21915451177692,103.000000001594));
#283=CARTESIAN_POINT('Ctrl Pts',(35.4357052804914,-2.47220794898806,102.880759989727));
#284=CARTESIAN_POINT('Ctrl Pts',(35.1753440642889,-4.94936266840783,102.387460920418));
#285=CARTESIAN_POINT('Ctrl Pts',(34.9794340238548,-6.17351537458612,102.013577546429));
#286=CARTESIAN_POINT('Ctrl Pts',(34.4860849232674,-8.50782235080576,101.035792245503));
#287=CARTESIAN_POINT('Ctrl Pts',(34.188515394278,-9.62025276707635,100.431106437657));
#288=CARTESIAN_POINT('Ctrl Pts',(33.5443142475052,-11.6697399223817,99.0448560015481));
#289=CARTESIAN_POINT('Ctrl Pts',(33.1981515277269,-12.6068723177541,98.2631853688212));
#290=CARTESIAN_POINT('Ctrl Pts',(32.5196787514554,-14.2662889149472,96.6037687716059));
#291=CARTESIAN_POINT('Ctrl Pts',(32.1619630965138,-15.048424389152,95.6650770942062));
#292=CARTESIAN_POINT('Ctrl Pts',(31.4767901281218,-16.4334606880465,93.6161567071429));
#293=CARTESIAN_POINT('Ctrl Pts',(31.1499529063741,-17.0365848670611,92.5058716718006));
#294=CARTESIAN_POINT('Ctrl Pts',(30.5959871861017,-18.0125075905257,90.1761281232604));
#295=CARTESIAN_POINT('Ctrl Pts',(30.3691612629348,-18.3860872054645,88.954351074365));
#296=CARTESIAN_POINT('Ctrl Pts',(30.0646281884736,-18.8799441440479,86.4782061906345));
#297=CARTESIAN_POINT('Ctrl Pts',(29.9874973947477,-19.,85.2237233404444));
#298=CARTESIAN_POINT('Ctrl Pts',(29.9874973947477,-19.,82.7762766622733));
#299=CARTESIAN_POINT('Ctrl Pts',(30.0646281884706,-18.8799441440526,81.5217938121073));
#300=CARTESIAN_POINT('Ctrl Pts',(30.3691612629248,-18.386087205481,79.0456489284266));
#301=CARTESIAN_POINT('Ctrl Pts',(30.5959871860877,-18.0125075905493,77.823871879557));
#302=CARTESIAN_POINT('Ctrl Pts',(31.1499529063538,-17.0365848670979,75.4941283310713));
#303=CARTESIAN_POINT('Ctrl Pts',(31.4767901280992,-16.4334606880895,74.3838432957575));
#304=CARTESIAN_POINT('Ctrl Pts',(32.161963096488,-15.0484243892067,72.3349229087528));
#305=CARTESIAN_POINT('Ctrl Pts',(32.5196787514288,-14.2662889150076,71.3962312313831));
#306=CARTESIAN_POINT('Ctrl Pts',(33.1981515277049,-12.6068723178127,69.7368146342104));
#307=CARTESIAN_POINT('Ctrl Pts',(33.5443142474884,-11.6697399224309,68.9551440015014));
#308=CARTESIAN_POINT('Ctrl Pts',(34.1885153942695,-9.62025276710776,67.5688935654302));
#309=CARTESIAN_POINT('Ctrl Pts',(34.486084923262,-8.50782235082882,66.9642077576044));
#310=CARTESIAN_POINT('Ctrl Pts',(34.9794340238533,-6.17351537459566,65.9864224567146));
#311=CARTESIAN_POINT('Ctrl Pts',(35.1753440642884,-4.94936266841233,65.6125390827421));
#312=CARTESIAN_POINT('Ctrl Pts',(35.4357052804916,-2.47220794898695,65.1192400134551));
#313=CARTESIAN_POINT('Ctrl Pts',(35.5,-1.21915451177522,65.000000001594));
#314=CARTESIAN_POINT('Ctrl Pts',(35.5,1.21915451177522,65.000000001594));
#315=CARTESIAN_POINT('Ctrl Pts',(35.4357052804916,2.47220794898694,65.1192400134551));
#316=CARTESIAN_POINT('Ctrl Pts',(35.1753440642884,4.94936266841233,65.6125390827421));
#317=CARTESIAN_POINT('Ctrl Pts',(34.9794340238533,6.17351537459566,65.9864224567146));
#318=CARTESIAN_POINT('Ctrl Pts',(34.486084923262,8.50782235082882,66.9642077576044));
#319=CARTESIAN_POINT('Ctrl Pts',(34.1885153942695,9.62025276710775,67.5688935654302));
#320=CARTESIAN_POINT('Ctrl Pts',(33.5443142474884,11.6697399224309,68.9551440015014));
#321=CARTESIAN_POINT('Ctrl Pts',(33.1981515277049,12.6068723178127,69.7368146342104));
#322=CARTESIAN_POINT('Ctrl Pts',(32.5196787514288,14.2662889150076,71.3962312313831));
#323=CARTESIAN_POINT('Ctrl Pts',(32.161963096488,15.0484243892067,72.3349229087528));
#324=CARTESIAN_POINT('Ctrl Pts',(31.4767901280992,16.4334606880895,74.3838432957575));
#325=CARTESIAN_POINT('Ctrl Pts',(31.1499529063538,17.0365848670979,75.4941283310713));
#326=CARTESIAN_POINT('Ctrl Pts',(30.5959871860877,18.0125075905493,77.823871879557));
#327=CARTESIAN_POINT('Ctrl Pts',(30.3691612629248,18.386087205481,79.0456489284266));
#328=CARTESIAN_POINT('Ctrl Pts',(30.0646281884706,18.8799441440526,81.5217938121073));
#329=CARTESIAN_POINT('Ctrl Pts',(29.9874973947477,19.,82.7762766622733));
#330=CARTESIAN_POINT('Ctrl Pts',(29.9874973947477,19.,84.0000000013465));
#331=CARTESIAN_POINT('Origin',(0.,0.,124.));
#332=CARTESIAN_POINT('',(35.5,4.3474961369731E-015,124.));
#333=CARTESIAN_POINT('Origin',(0.,0.,124.));
#334=CARTESIAN_POINT('',(35.5,4.3474961369731E-015,44.));
#335=CARTESIAN_POINT('Origin',(0.,0.,44.));
#336=CARTESIAN_POINT('Origin',(0.,0.,0.));
#337=CARTESIAN_POINT('',(-45.5,-5.571959E-015,168.));
#338=CARTESIAN_POINT('Origin',(0.,0.,168.));
#339=CARTESIAN_POINT('',(45.5,-1.114392E-014,0.));
#340=CARTESIAN_POINT('Origin',(0.,0.,0.));
#341=CARTESIAN_POINT('',(38.016443810541,-25.,84.000000001707));
#342=CARTESIAN_POINT('',(45.5,-3.19189119579733E-015,59.0000000020428));
#343=CARTESIAN_POINT('Ctrl Pts',(38.0164438105407,-25.,84.0000000017068));
#344=CARTESIAN_POINT('Ctrl Pts',(38.0164438105407,-25.,82.3870109583337));
#345=CARTESIAN_POINT('Ctrl Pts',(38.1221646148671,-24.8414935150168,80.7346510588191));
#346=CARTESIAN_POINT('Ctrl Pts',(38.5384622131492,-24.190621413218,77.4749605118599));
#347=CARTESIAN_POINT('Ctrl Pts',(38.8482093702107,-23.6985581037543,75.8674636101565));
#348=CARTESIAN_POINT('Ctrl Pts',(39.6031969310788,-22.4140957925203,72.8032024512779));
#349=CARTESIAN_POINT('Ctrl Pts',(40.0480097588166,-21.6206657663282,71.3433578400023));
#350=CARTESIAN_POINT('Ctrl Pts',(40.9791584234785,-19.7991123156227,68.6494648042166));
#351=CARTESIAN_POINT('Ctrl Pts',(41.4646676787948,-18.7706792043383,67.415340146867));
#352=CARTESIAN_POINT('Ctrl Pts',(42.3844441408998,-16.5892765670097,65.2339375095909));
#353=CARTESIAN_POINT('Ctrl Pts',(42.853274450189,-15.3574853813662,64.2062098855255));
#354=CARTESIAN_POINT('Ctrl Pts',(43.7253840874512,-12.6627909524371,62.3828723046099));
#355=CARTESIAN_POINT('Ctrl Pts',(44.1280426300489,-11.1997801771039,61.5871244013312));
#356=CARTESIAN_POINT('Ctrl Pts',(44.7955675108415,-8.12873656658169,60.2998791646818));
#357=CARTESIAN_POINT('Ctrl Pts',(45.0606235413486,-6.51768126944578,59.8073481232757));
#358=CARTESIAN_POINT('Ctrl Pts',(45.4129451664662,-3.25643584016071,59.1572908162678));
#359=CARTESIAN_POINT('Ctrl Pts',(45.5,-1.60617601488381,59.0000000020428));
#360=CARTESIAN_POINT('Ctrl Pts',(45.5,0.,59.0000000020428));
#361=CARTESIAN_POINT('',(45.5,-1.114392E-014,109.00000000204));
#362=CARTESIAN_POINT('Ctrl Pts',(38.0164438105407,-25.,84.0000000017068));
#363=CARTESIAN_POINT('Ctrl Pts',(38.0164438105407,-25.,85.6129890450908));
#364=CARTESIAN_POINT('Ctrl Pts',(38.1221646148684,-24.8414935150148,87.2653489446163));
#365=CARTESIAN_POINT('Ctrl Pts',(38.5384622131497,-24.1906214132171,90.5250394916025));
#366=CARTESIAN_POINT('Ctrl Pts',(38.8482093702092,-23.6985581037566,92.1325363933222));
#367=CARTESIAN_POINT('Ctrl Pts',(39.6031969310693,-22.4140957925368,95.1967975522429));
#368=CARTESIAN_POINT('Ctrl Pts',(40.0480097588012,-21.6206657663561,96.6566421635438));
#369=CARTESIAN_POINT('Ctrl Pts',(40.9791584234508,-19.7991123156792,99.3505351993881));
#370=CARTESIAN_POINT('Ctrl Pts',(41.4646676787608,-18.7706792044123,100.584659856771));
#371=CARTESIAN_POINT('Ctrl Pts',(42.3844441408608,-16.5892765671087,102.766062494127));
#372=CARTESIAN_POINT('Ctrl Pts',(42.8532744501516,-15.3574853814707,103.793790118242));
#373=CARTESIAN_POINT('Ctrl Pts',(43.72538408742,-12.6627909525448,105.617127699254));
#374=CARTESIAN_POINT('Ctrl Pts',(44.1280426300224,-11.1997801772092,106.412875602579));
#375=CARTESIAN_POINT('Ctrl Pts',(44.7955675108252,-8.12873656667311,107.70012083931));
#376=CARTESIAN_POINT('Ctrl Pts',(45.0606235413377,-6.51768126952527,108.19265188075));
#377=CARTESIAN_POINT('Ctrl Pts',(45.4129451664635,-3.25643584020693,108.842709187805));
#378=CARTESIAN_POINT('Ctrl Pts',(45.5,-1.60617601490869,109.000000002043));
#379=CARTESIAN_POINT('Ctrl Pts',(45.5,-3.19189119579733E-015,109.000000002043));
#380=CARTESIAN_POINT('',(38.016443810541,25.,84.000000001707));
#381=CARTESIAN_POINT('Ctrl Pts',(45.5,3.33066907387547E-015,109.000000002043));
#382=CARTESIAN_POINT('Ctrl Pts',(45.5,1.60617601490868,109.000000002043));
#383=CARTESIAN_POINT('Ctrl Pts',(45.4129451664635,3.25643584020693,108.842709187805));
#384=CARTESIAN_POINT('Ctrl Pts',(45.0606235413377,6.51768126952526,108.19265188075));
#385=CARTESIAN_POINT('Ctrl Pts',(44.7955675108252,8.1287365666731,107.70012083931));
#386=CARTESIAN_POINT('Ctrl Pts',(44.1280426300224,11.1997801772092,106.412875602579));
#387=CARTESIAN_POINT('Ctrl Pts',(43.72538408742,12.6627909525448,105.617127699254));
#388=CARTESIAN_POINT('Ctrl Pts',(42.8532744501516,15.3574853814707,103.793790118242));
#389=CARTESIAN_POINT('Ctrl Pts',(42.3844441408608,16.5892765671087,102.766062494127));
#390=CARTESIAN_POINT('Ctrl Pts',(41.4646676787608,18.7706792044123,100.584659856771));
#391=CARTESIAN_POINT('Ctrl Pts',(40.9791584234508,19.7991123156792,99.3505351993881));
#392=CARTESIAN_POINT('Ctrl Pts',(40.0480097588012,21.620665766356,96.6566421635438));
#393=CARTESIAN_POINT('Ctrl Pts',(39.6031969310693,22.4140957925368,95.1967975522429));
#394=CARTESIAN_POINT('Ctrl Pts',(38.8482093702092,23.6985581037566,92.1325363933222));
#395=CARTESIAN_POINT('Ctrl Pts',(38.5384622131497,24.1906214132171,90.5250394916025));
#396=CARTESIAN_POINT('Ctrl Pts',(38.1221646148684,24.8414935150148,87.2653489446163));
#397=CARTESIAN_POINT('Ctrl Pts',(38.0164438105407,25.,85.6129890450908));
#398=CARTESIAN_POINT('Ctrl Pts',(38.0164438105407,25.,84.0000000017068));
#399=CARTESIAN_POINT('Ctrl Pts',(45.5,-6.38378239159465E-015,59.0000000020428));
#400=CARTESIAN_POINT('Ctrl Pts',(45.5,1.60617601488379,59.0000000020428));
#401=CARTESIAN_POINT('Ctrl Pts',(45.4129451664662,3.25643584016069,59.1572908162678));
#402=CARTESIAN_POINT('Ctrl Pts',(45.0606235413486,6.51768126944577,59.8073481232756));
#403=CARTESIAN_POINT('Ctrl Pts',(44.7955675108415,8.12873656658167,60.2998791646818));
#404=CARTESIAN_POINT('Ctrl Pts',(44.1280426300489,11.1997801771038,61.5871244013312));
#405=CARTESIAN_POINT('Ctrl Pts',(43.7253840874512,12.6627909524371,62.3828723046099));
#406=CARTESIAN_POINT('Ctrl Pts',(42.853274450189,15.3574853813662,64.2062098855255));
#407=CARTESIAN_POINT('Ctrl Pts',(42.3844441408998,16.5892765670097,65.2339375095908));
#408=CARTESIAN_POINT('Ctrl Pts',(41.4646676787948,18.7706792043383,67.4153401468669));
#409=CARTESIAN_POINT('Ctrl Pts',(40.9791584234786,19.7991123156226,68.6494648042166));
#410=CARTESIAN_POINT('Ctrl Pts',(40.0480097588166,21.6206657663282,71.3433578400023));
#411=CARTESIAN_POINT('Ctrl Pts',(39.6031969310788,22.4140957925203,72.8032024512779));
#412=CARTESIAN_POINT('Ctrl Pts',(38.8482093702107,23.6985581037543,75.8674636101565));
#413=CARTESIAN_POINT('Ctrl Pts',(38.5384622131492,24.190621413218,77.4749605118599));
#414=CARTESIAN_POINT('Ctrl Pts',(38.1221646148671,24.8414935150168,80.734651058819));
#415=CARTESIAN_POINT('Ctrl Pts',(38.0164438105407,25.,82.3870109583337));
#416=CARTESIAN_POINT('Ctrl Pts',(38.0164438105407,25.,84.0000000017068));
#417=CARTESIAN_POINT('Origin',(-8.88178419700125E-015,0.,22.));
#418=CARTESIAN_POINT('',(-37.5,-4.592274E-015,44.));
#419=CARTESIAN_POINT('Origin',(0.,0.,44.));
#420=CARTESIAN_POINT('',(-37.5,-4.592274E-015,0.));
#421=CARTESIAN_POINT('Origin',(0.,0.,0.));
#422=CARTESIAN_POINT('Origin',(0.,0.,84.));
#423=CARTESIAN_POINT('',(65.9999999988776,-3.061516E-015,109.000000002963));
#424=CARTESIAN_POINT('Origin',(66.,0.,84.000000002963));
#425=CARTESIAN_POINT('Origin',(-8.88178419700125E-015,0.,146.));
#426=CARTESIAN_POINT('',(-37.5,-4.592274E-015,168.));
#427=CARTESIAN_POINT('Origin',(0.,0.,168.));
#428=CARTESIAN_POINT('',(-37.5,-4.592274E-015,124.));
#429=CARTESIAN_POINT('Origin',(0.,0.,124.));
#430=CARTESIAN_POINT('Origin',(53.,0.,84.0000000023797));
#431=CARTESIAN_POINT('',(65.9999999991021,-2.449213E-015,104.000000002963));
#432=CARTESIAN_POINT('Origin',(66.,0.,84.000000002963));
#433=CARTESIAN_POINT('',(39.9999999991021,-2.449213E-015,104.000000001796));
#434=CARTESIAN_POINT('Origin',(40.,0.,84.000000001796));
#435=CARTESIAN_POINT('Origin',(0.,0.,0.));
#436=CARTESIAN_POINT('Origin',(0.,0.,44.));
#437=CARTESIAN_POINT('Origin',(0.,0.,168.));
#438=CARTESIAN_POINT('Origin',(66.,0.,84.000000002963));
#439=CARTESIAN_POINT('Origin',(0.,0.,124.));
#440=CARTESIAN_POINT('Origin',(40.,0.,84.000000001796));
#441=UNCERTAINTY_MEASURE_WITH_UNIT(LENGTH_MEASURE(0.01),#443,
'DISTANCE_ACCURACY_VALUE',
'Maximum model space distance between geometric entities at asserted c
onnectivities');
#442=(
GEOMETRIC_REPRESENTATION_CONTEXT(3)
GLOBAL_UNCERTAINTY_ASSIGNED_CONTEXT((#441))
GLOBAL_UNIT_ASSIGNED_CONTEXT((#443,#446,#444))
REPRESENTATION_CONTEXT('','3D')
);
#443=(
LENGTH_UNIT()
NAMED_UNIT(*)
SI_UNIT(.MILLI.,.METRE.)
);
#444=(
NAMED_UNIT(*)
SI_UNIT($,.STERADIAN.)
SOLID_ANGLE_UNIT()
);
#445=DIMENSIONAL_EXPONENTS(0.,0.,0.,0.,0.,0.,0.);
#446=(
CONVERSION_BASED_UNIT('degree',#448)
NAMED_UNIT(#445)
PLANE_ANGLE_UNIT()
);
#447=(
NAMED_UNIT(*)
PLANE_ANGLE_UNIT()
SI_UNIT($,.RADIAN.)
);
#448=PLANE_ANGLE_MEASURE_WITH_UNIT(PLANE_ANGLE_MEASURE(0.01745329252),#447);
#449=SHAPE_DEFINITION_REPRESENTATION(#450,#451);
#450=PRODUCT_DEFINITION_SHAPE('',$,#453);
#451=SHAPE_REPRESENTATION('',(#182),#442);
#452=PRODUCT_DEFINITION_CONTEXT('3D Mechanical Parts',#456,'design');
#453=PRODUCT_DEFINITION('TRIV075040','TRIV075040',#454,#452);
#454=PRODUCT_DEFINITION_FORMATION('',$,#458);
#455=APPLICATION_PROTOCOL_DEFINITION('international standard',
'automotive_design',2009,#456);
#456=APPLICATION_CONTEXT(
'Core Data for Automotive Mechanical Design Process');
#457=PRODUCT_CONTEXT('3D Mechanical Parts',#456,'mechanical');
#458=PRODUCT('TRIV075040','TRIV075040',$,(#457));
#459=PRESENTATION_STYLE_ASSIGNMENT((#460));
#460=SURFACE_STYLE_USAGE(.BOTH.,#461);
#461=SURFACE_SIDE_STYLE($,(#462));
#462=SURFACE_STYLE_FILL_AREA(#463);
#463=FILL_AREA_STYLE($,(#464));
#464=FILL_AREA_STYLE_COLOUR($,#465);
#465=COLOUR_RGB('',0.509803921568627,0.509803921568627,0.588235294117647);
ENDSEC;
END-ISO-10303-21;
