ISO-10303-21;
HEADER;
FILE_DESCRIPTION( ( 'STEP AP214' ), '1' );
FILE_NAME( 'p:/temp/worker_78/temp/exporttempdir_2372_32_NeCh6/format_0/3000689H.stp', '2021-12-06T12:06:26', ( 'License CC BY-ND 4.0' ), ( 'CADENAS' ), ' ', 'PARTsolutions', ' ' );
FILE_SCHEMA( ( 'AUTOMOTIVE_DESIGN { 1 0 10303 214 1 1 1 1 }' ) );
ENDSEC;
DATA;
#1 = MECHANICAL_DESIGN_GEOMETRIC_PRESENTATION_REPRESENTATION( ' ', ( #10, #11, #12, #13, #14, #15, #16, #17, #18, #19, #20, #21 ), #6 );
#2 = PRODUCT_DEFINITION_CONTEXT( '', #22, 'design' );
#3 = APPLICATION_PROTOCOL_DEFINITION( 'international standard', 'automotive_design', 2001, #22 );
#4 = PRODUCT_CATEGORY_RELATIONSHIP( 'NONE', 'NONE', #23, #24 );
#5 = SHAPE_DEFINITION_REPRESENTATION( #25, #26 );
#6 =  ( GEOMETRIC_REPRESENTATION_CONTEXT( 3 )GLOBAL_UNCERTAINTY_ASSIGNED_CONTEXT( ( #29 ) )GLOBAL_UNIT_ASSIGNED_CONTEXT( ( #31, #32, #33 ) )REPRESENTATION_CONTEXT( 'NONE', 'WORKSPACE' ) );
#10 = STYLED_ITEM( '', ( #35 ), #36 );
#11 = STYLED_ITEM( '', ( #37 ), #38 );
#12 = STYLED_ITEM( '', ( #39 ), #40 );
#13 = STYLED_ITEM( '', ( #41 ), #42 );
#14 = STYLED_ITEM( '', ( #43 ), #44 );
#15 = STYLED_ITEM( '', ( #45 ), #46 );
#16 = STYLED_ITEM( '', ( #47 ), #48 );
#17 = STYLED_ITEM( '', ( #49 ), #50 );
#18 = STYLED_ITEM( '', ( #51 ), #52 );
#19 = STYLED_ITEM( '', ( #53 ), #54 );
#20 = STYLED_ITEM( '', ( #55 ), #56 );
#21 = STYLED_ITEM( '', ( #57 ), #58 );
#22 = APPLICATION_CONTEXT( 'core data for automotive mechanical design processes' );
#23 = PRODUCT_CATEGORY( 'part', 'NONE' );
#24 = PRODUCT_RELATED_PRODUCT_CATEGORY( 'detail', ' ', ( #59 ) );
#25 = PRODUCT_DEFINITION_SHAPE( 'NONE', 'NONE', #60 );
#26 = ADVANCED_BREP_SHAPE_REPRESENTATION( '_3000689H', ( #61, #62 ), #6 );
#29 = UNCERTAINTY_MEASURE_WITH_UNIT( LENGTH_MEASURE( 0.00100000000000000 ), #31, '', '' );
#31 =  ( CONVERSION_BASED_UNIT( 'MILLIMETRE', #65 )LENGTH_UNIT(  )NAMED_UNIT( #68 ) );
#32 =  ( NAMED_UNIT( #70 )PLANE_ANGLE_UNIT(  )SI_UNIT( $, .RADIAN. ) );
#33 =  ( NAMED_UNIT( #70 )SI_UNIT( $, .STERADIAN. )SOLID_ANGLE_UNIT(  ) );
#35 = PRESENTATION_STYLE_ASSIGNMENT( ( #76 ) );
#36 = ADVANCED_FACE( '', ( #77, #78, #79, #80, #81, #82, #83, #84, #85, #86 ), #87, .T. );
#37 = PRESENTATION_STYLE_ASSIGNMENT( ( #88 ) );
#38 = ADVANCED_FACE( '', ( #89, #90 ), #91, .F. );
#39 = PRESENTATION_STYLE_ASSIGNMENT( ( #92 ) );
#40 = ADVANCED_FACE( '', ( #93, #94 ), #95, .F. );
#41 = PRESENTATION_STYLE_ASSIGNMENT( ( #96 ) );
#42 = ADVANCED_FACE( '', ( #97, #98 ), #99, .F. );
#43 = PRESENTATION_STYLE_ASSIGNMENT( ( #100 ) );
#44 = ADVANCED_FACE( '', ( #101, #102 ), #103, .F. );
#45 = PRESENTATION_STYLE_ASSIGNMENT( ( #104 ) );
#46 = ADVANCED_FACE( '', ( #105, #106 ), #107, .F. );
#47 = PRESENTATION_STYLE_ASSIGNMENT( ( #108 ) );
#48 = ADVANCED_FACE( '', ( #109, #110 ), #111, .T. );
#49 = PRESENTATION_STYLE_ASSIGNMENT( ( #112 ) );
#50 = ADVANCED_FACE( '', ( #113, #114 ), #115, .F. );
#51 = PRESENTATION_STYLE_ASSIGNMENT( ( #116 ) );
#52 = ADVANCED_FACE( '', ( #117, #118 ), #119, .F. );
#53 = PRESENTATION_STYLE_ASSIGNMENT( ( #120 ) );
#54 = ADVANCED_FACE( '', ( #121, #122 ), #123, .F. );
#55 = PRESENTATION_STYLE_ASSIGNMENT( ( #124 ) );
#56 = ADVANCED_FACE( '', ( #125, #126 ), #127, .F. );
#57 = PRESENTATION_STYLE_ASSIGNMENT( ( #128 ) );
#58 = ADVANCED_FACE( '', ( #129, #130, #131, #132, #133, #134, #135, #136, #137, #138 ), #139, .T. );
#59 = PRODUCT( '_3000689H', '_3000689H', 'PART-_3000689H-DESC', ( #140 ) );
#60 = PRODUCT_DEFINITION( 'NONE', 'NONE', #141, #2 );
#61 = MANIFOLD_SOLID_BREP( '_3000689H', #142 );
#62 = AXIS2_PLACEMENT_3D( '', #143, #144, #145 );
#65 = LENGTH_MEASURE_WITH_UNIT( LENGTH_MEASURE( 1.00000000000000 ), #146 );
#68 = DIMENSIONAL_EXPONENTS( 1.00000000000000, 0.000000000000000, 0.000000000000000, 0.000000000000000, 0.000000000000000, 0.000000000000000, 0.000000000000000 );
#70 = DIMENSIONAL_EXPONENTS( 0.000000000000000, 0.000000000000000, 0.000000000000000, 0.000000000000000, 0.000000000000000, 0.000000000000000, 0.000000000000000 );
#76 = SURFACE_STYLE_USAGE( .BOTH., #147 );
#77 = FACE_BOUND( '', #148, .T. );
#78 = FACE_BOUND( '', #149, .T. );
#79 = FACE_BOUND( '', #150, .T. );
#80 = FACE_BOUND( '', #151, .T. );
#81 = FACE_BOUND( '', #152, .T. );
#82 = FACE_BOUND( '', #153, .T. );
#83 = FACE_BOUND( '', #154, .T. );
#84 = FACE_BOUND( '', #155, .T. );
#85 = FACE_BOUND( '', #156, .T. );
#86 = FACE_OUTER_BOUND( '', #157, .T. );
#87 = PLANE( '', #158 );
#88 = SURFACE_STYLE_USAGE( .BOTH., #159 );
#89 = FACE_OUTER_BOUND( '', #160, .T. );
#90 = FACE_OUTER_BOUND( '', #161, .T. );
#91 = CYLINDRICAL_SURFACE( '', #162, 3.75000000000000 );
#92 = SURFACE_STYLE_USAGE( .BOTH., #163 );
#93 = FACE_OUTER_BOUND( '', #164, .T. );
#94 = FACE_OUTER_BOUND( '', #165, .T. );
#95 = CYLINDRICAL_SURFACE( '', #166, 3.75000000000000 );
#96 = SURFACE_STYLE_USAGE( .BOTH., #167 );
#97 = FACE_OUTER_BOUND( '', #168, .T. );
#98 = FACE_OUTER_BOUND( '', #169, .T. );
#99 = CYLINDRICAL_SURFACE( '', #170, 3.75000000000000 );
#100 = SURFACE_STYLE_USAGE( .BOTH., #171 );
#101 = FACE_OUTER_BOUND( '', #172, .T. );
#102 = FACE_OUTER_BOUND( '', #173, .T. );
#103 = CYLINDRICAL_SURFACE( '', #174, 45.0000000000000 );
#104 = SURFACE_STYLE_USAGE( .BOTH., #175 );
#105 = FACE_OUTER_BOUND( '', #176, .T. );
#106 = FACE_OUTER_BOUND( '', #177, .T. );
#107 = CYLINDRICAL_SURFACE( '', #178, 3.75000000000000 );
#108 = SURFACE_STYLE_USAGE( .BOTH., #179 );
#109 = FACE_OUTER_BOUND( '', #180, .T. );
#110 = FACE_OUTER_BOUND( '', #181, .T. );
#111 = CYLINDRICAL_SURFACE( '', #182, 79.0000000000000 );
#112 = SURFACE_STYLE_USAGE( .BOTH., #183 );
#113 = FACE_OUTER_BOUND( '', #184, .T. );
#114 = FACE_OUTER_BOUND( '', #185, .T. );
#115 = CYLINDRICAL_SURFACE( '', #186, 3.75000000000000 );
#116 = SURFACE_STYLE_USAGE( .BOTH., #187 );
#117 = FACE_OUTER_BOUND( '', #188, .T. );
#118 = FACE_OUTER_BOUND( '', #189, .T. );
#119 = CYLINDRICAL_SURFACE( '', #190, 3.75000000000000 );
#120 = SURFACE_STYLE_USAGE( .BOTH., #191 );
#121 = FACE_OUTER_BOUND( '', #192, .T. );
#122 = FACE_OUTER_BOUND( '', #193, .T. );
#123 = CYLINDRICAL_SURFACE( '', #194, 3.75000000000000 );
#124 = SURFACE_STYLE_USAGE( .BOTH., #195 );
#125 = FACE_OUTER_BOUND( '', #196, .T. );
#126 = FACE_OUTER_BOUND( '', #197, .T. );
#127 = CYLINDRICAL_SURFACE( '', #198, 3.75000000000000 );
#128 = SURFACE_STYLE_USAGE( .BOTH., #199 );
#129 = FACE_OUTER_BOUND( '', #200, .T. );
#130 = FACE_BOUND( '', #201, .T. );
#131 = FACE_BOUND( '', #202, .T. );
#132 = FACE_BOUND( '', #203, .T. );
#133 = FACE_BOUND( '', #204, .T. );
#134 = FACE_BOUND( '', #205, .T. );
#135 = FACE_BOUND( '', #206, .T. );
#136 = FACE_BOUND( '', #207, .T. );
#137 = FACE_BOUND( '', #208, .T. );
#138 = FACE_BOUND( '', #209, .T. );
#139 = PLANE( '', #210 );
#140 = PRODUCT_CONTEXT( '', #22, 'mechanical' );
#141 = PRODUCT_DEFINITION_FORMATION_WITH_SPECIFIED_SOURCE( ' ', 'NONE', #59, .NOT_KNOWN. );
#142 = CLOSED_SHELL( '', ( #58, #44, #36, #48, #38, #42, #56, #46, #40, #50, #52, #54 ) );
#143 = CARTESIAN_POINT( '', ( 0.000000000000000, 0.000000000000000, 0.000000000000000 ) );
#144 = DIRECTION( '', ( 0.000000000000000, 0.000000000000000, 1.00000000000000 ) );
#145 = DIRECTION( '', ( 1.00000000000000, 0.000000000000000, 0.000000000000000 ) );
#146 =  ( LENGTH_UNIT(  )NAMED_UNIT( #68 )SI_UNIT( .MILLI., .METRE. ) );
#147 = SURFACE_SIDE_STYLE( '', ( #212 ) );
#148 = EDGE_LOOP( '', ( #213 ) );
#149 = EDGE_LOOP( '', ( #214 ) );
#150 = EDGE_LOOP( '', ( #215 ) );
#151 = EDGE_LOOP( '', ( #216 ) );
#152 = EDGE_LOOP( '', ( #217 ) );
#153 = EDGE_LOOP( '', ( #218 ) );
#154 = EDGE_LOOP( '', ( #219 ) );
#155 = EDGE_LOOP( '', ( #220 ) );
#156 = EDGE_LOOP( '', ( #221 ) );
#157 = EDGE_LOOP( '', ( #222 ) );
#158 = AXIS2_PLACEMENT_3D( '', #223, #224, #225 );
#159 = SURFACE_SIDE_STYLE( '', ( #226 ) );
#160 = EDGE_LOOP( '', ( #227 ) );
#161 = EDGE_LOOP( '', ( #228 ) );
#162 = AXIS2_PLACEMENT_3D( '', #229, #230, #231 );
#163 = SURFACE_SIDE_STYLE( '', ( #232 ) );
#164 = EDGE_LOOP( '', ( #233 ) );
#165 = EDGE_LOOP( '', ( #234 ) );
#166 = AXIS2_PLACEMENT_3D( '', #235, #236, #237 );
#167 = SURFACE_SIDE_STYLE( '', ( #238 ) );
#168 = EDGE_LOOP( '', ( #239 ) );
#169 = EDGE_LOOP( '', ( #240 ) );
#170 = AXIS2_PLACEMENT_3D( '', #241, #242, #243 );
#171 = SURFACE_SIDE_STYLE( '', ( #244 ) );
#172 = EDGE_LOOP( '', ( #245 ) );
#173 = EDGE_LOOP( '', ( #246 ) );
#174 = AXIS2_PLACEMENT_3D( '', #247, #248, #249 );
#175 = SURFACE_SIDE_STYLE( '', ( #250 ) );
#176 = EDGE_LOOP( '', ( #251 ) );
#177 = EDGE_LOOP( '', ( #252 ) );
#178 = AXIS2_PLACEMENT_3D( '', #253, #254, #255 );
#179 = SURFACE_SIDE_STYLE( '', ( #256 ) );
#180 = EDGE_LOOP( '', ( #257 ) );
#181 = EDGE_LOOP( '', ( #258 ) );
#182 = AXIS2_PLACEMENT_3D( '', #259, #260, #261 );
#183 = SURFACE_SIDE_STYLE( '', ( #262 ) );
#184 = EDGE_LOOP( '', ( #263 ) );
#185 = EDGE_LOOP( '', ( #264 ) );
#186 = AXIS2_PLACEMENT_3D( '', #265, #266, #267 );
#187 = SURFACE_SIDE_STYLE( '', ( #268 ) );
#188 = EDGE_LOOP( '', ( #269 ) );
#189 = EDGE_LOOP( '', ( #270 ) );
#190 = AXIS2_PLACEMENT_3D( '', #271, #272, #273 );
#191 = SURFACE_SIDE_STYLE( '', ( #274 ) );
#192 = EDGE_LOOP( '', ( #275 ) );
#193 = EDGE_LOOP( '', ( #276 ) );
#194 = AXIS2_PLACEMENT_3D( '', #277, #278, #279 );
#195 = SURFACE_SIDE_STYLE( '', ( #280 ) );
#196 = EDGE_LOOP( '', ( #281 ) );
#197 = EDGE_LOOP( '', ( #282 ) );
#198 = AXIS2_PLACEMENT_3D( '', #283, #284, #285 );
#199 = SURFACE_SIDE_STYLE( '', ( #286 ) );
#200 = EDGE_LOOP( '', ( #287 ) );
#201 = EDGE_LOOP( '', ( #288 ) );
#202 = EDGE_LOOP( '', ( #289 ) );
#203 = EDGE_LOOP( '', ( #290 ) );
#204 = EDGE_LOOP( '', ( #291 ) );
#205 = EDGE_LOOP( '', ( #292 ) );
#206 = EDGE_LOOP( '', ( #293 ) );
#207 = EDGE_LOOP( '', ( #294 ) );
#208 = EDGE_LOOP( '', ( #295 ) );
#209 = EDGE_LOOP( '', ( #296 ) );
#210 = AXIS2_PLACEMENT_3D( '', #297, #298, #299 );
#212 = SURFACE_STYLE_FILL_AREA( #300 );
#213 = ORIENTED_EDGE( '', *, *, #301, .T. );
#214 = ORIENTED_EDGE( '', *, *, #302, .T. );
#215 = ORIENTED_EDGE( '', *, *, #303, .T. );
#216 = ORIENTED_EDGE( '', *, *, #304, .T. );
#217 = ORIENTED_EDGE( '', *, *, #305, .T. );
#218 = ORIENTED_EDGE( '', *, *, #306, .T. );
#219 = ORIENTED_EDGE( '', *, *, #307, .T. );
#220 = ORIENTED_EDGE( '', *, *, #308, .T. );
#221 = ORIENTED_EDGE( '', *, *, #309, .T. );
#222 = ORIENTED_EDGE( '', *, *, #310, .F. );
#223 = CARTESIAN_POINT( '', ( 0.000000000000000, 79.0000000000000, 0.000000000000000 ) );
#224 = DIRECTION( '', ( -1.00000000000000, 0.000000000000000, 0.000000000000000 ) );
#225 = DIRECTION( '', ( 0.000000000000000, 0.000000000000000, 1.00000000000000 ) );
#226 = SURFACE_STYLE_FILL_AREA( #311 );
#227 = ORIENTED_EDGE( '', *, *, #312, .F. );
#228 = ORIENTED_EDGE( '', *, *, #302, .F. );
#229 = CARTESIAN_POINT( '', ( 3.00000000000000, 64.0000000000000, 0.000000000000000 ) );
#230 = DIRECTION( '', ( -1.00000000000000, -0.000000000000000, 0.000000000000000 ) );
#231 = DIRECTION( '', ( -0.000000000000000, 0.000000000000000, -1.00000000000000 ) );
#232 = SURFACE_STYLE_FILL_AREA( #313 );
#233 = ORIENTED_EDGE( '', *, *, #314, .T. );
#234 = ORIENTED_EDGE( '', *, *, #304, .F. );
#235 = CARTESIAN_POINT( '', ( 3.00000000000000, -45.2548339959390, -45.2548339959391 ) );
#236 = DIRECTION( '', ( -1.00000000000000, -0.000000000000000, 0.000000000000000 ) );
#237 = DIRECTION( '', ( -0.000000000000000, 0.000000000000000, -1.00000000000000 ) );
#238 = SURFACE_STYLE_FILL_AREA( #315 );
#239 = ORIENTED_EDGE( '', *, *, #316, .T. );
#240 = ORIENTED_EDGE( '', *, *, #309, .F. );
#241 = CARTESIAN_POINT( '', ( 3.00000000000000, 45.2548339959390, -45.2548339959390 ) );
#242 = DIRECTION( '', ( -1.00000000000000, -0.000000000000000, 0.000000000000000 ) );
#243 = DIRECTION( '', ( -0.000000000000000, 0.000000000000000, -1.00000000000000 ) );
#244 = SURFACE_STYLE_FILL_AREA( #317 );
#245 = ORIENTED_EDGE( '', *, *, #318, .T. );
#246 = ORIENTED_EDGE( '', *, *, #301, .F. );
#247 = CARTESIAN_POINT( '', ( 3.00000000000000, 0.000000000000000, 0.000000000000000 ) );
#248 = DIRECTION( '', ( -1.00000000000000, -0.000000000000000, 0.000000000000000 ) );
#249 = DIRECTION( '', ( -0.000000000000000, 0.000000000000000, -1.00000000000000 ) );
#250 = SURFACE_STYLE_FILL_AREA( #319 );
#251 = ORIENTED_EDGE( '', *, *, #320, .T. );
#252 = ORIENTED_EDGE( '', *, *, #305, .F. );
#253 = CARTESIAN_POINT( '', ( 3.00000000000000, -64.0000000000000, 0.000000000000000 ) );
#254 = DIRECTION( '', ( -1.00000000000000, -0.000000000000000, 0.000000000000000 ) );
#255 = DIRECTION( '', ( -0.000000000000000, 0.000000000000000, -1.00000000000000 ) );
#256 = SURFACE_STYLE_FILL_AREA( #321 );
#257 = ORIENTED_EDGE( '', *, *, #310, .T. );
#258 = ORIENTED_EDGE( '', *, *, #322, .F. );
#259 = CARTESIAN_POINT( '', ( 3.00000000000000, 0.000000000000000, 0.000000000000000 ) );
#260 = DIRECTION( '', ( -1.00000000000000, -0.000000000000000, 0.000000000000000 ) );
#261 = DIRECTION( '', ( -0.000000000000000, 0.000000000000000, -1.00000000000000 ) );
#262 = SURFACE_STYLE_FILL_AREA( #323 );
#263 = ORIENTED_EDGE( '', *, *, #324, .T. );
#264 = ORIENTED_EDGE( '', *, *, #303, .F. );
#265 = CARTESIAN_POINT( '', ( 3.00000000000000, 0.000000000000000, -64.0000000000000 ) );
#266 = DIRECTION( '', ( -1.00000000000000, -0.000000000000000, 0.000000000000000 ) );
#267 = DIRECTION( '', ( -0.000000000000000, 0.000000000000000, -1.00000000000000 ) );
#268 = SURFACE_STYLE_FILL_AREA( #325 );
#269 = ORIENTED_EDGE( '', *, *, #326, .T. );
#270 = ORIENTED_EDGE( '', *, *, #308, .F. );
#271 = CARTESIAN_POINT( '', ( 3.00000000000000, 45.2548339959391, 45.2548339959391 ) );
#272 = DIRECTION( '', ( -1.00000000000000, -0.000000000000000, 0.000000000000000 ) );
#273 = DIRECTION( '', ( -0.000000000000000, 0.000000000000000, -1.00000000000000 ) );
#274 = SURFACE_STYLE_FILL_AREA( #327 );
#275 = ORIENTED_EDGE( '', *, *, #328, .T. );
#276 = ORIENTED_EDGE( '', *, *, #307, .F. );
#277 = CARTESIAN_POINT( '', ( 3.00000000000000, 0.000000000000000, 64.0000000000000 ) );
#278 = DIRECTION( '', ( -1.00000000000000, -0.000000000000000, 0.000000000000000 ) );
#279 = DIRECTION( '', ( -0.000000000000000, 0.000000000000000, -1.00000000000000 ) );
#280 = SURFACE_STYLE_FILL_AREA( #329 );
#281 = ORIENTED_EDGE( '', *, *, #330, .T. );
#282 = ORIENTED_EDGE( '', *, *, #306, .F. );
#283 = CARTESIAN_POINT( '', ( 3.00000000000000, -45.2548339959390, 45.2548339959391 ) );
#284 = DIRECTION( '', ( -1.00000000000000, -0.000000000000000, 0.000000000000000 ) );
#285 = DIRECTION( '', ( -0.000000000000000, 0.000000000000000, -1.00000000000000 ) );
#286 = SURFACE_STYLE_FILL_AREA( #331 );
#287 = ORIENTED_EDGE( '', *, *, #322, .T. );
#288 = ORIENTED_EDGE( '', *, *, #312, .T. );
#289 = ORIENTED_EDGE( '', *, *, #324, .F. );
#290 = ORIENTED_EDGE( '', *, *, #314, .F. );
#291 = ORIENTED_EDGE( '', *, *, #320, .F. );
#292 = ORIENTED_EDGE( '', *, *, #330, .F. );
#293 = ORIENTED_EDGE( '', *, *, #328, .F. );
#294 = ORIENTED_EDGE( '', *, *, #326, .F. );
#295 = ORIENTED_EDGE( '', *, *, #316, .F. );
#296 = ORIENTED_EDGE( '', *, *, #318, .F. );
#297 = CARTESIAN_POINT( '', ( 3.00000000000000, 45.0000000000000, 0.000000000000000 ) );
#298 = DIRECTION( '', ( 1.00000000000000, 0.000000000000000, -0.000000000000000 ) );
#299 = DIRECTION( '', ( -0.000000000000000, 0.000000000000000, -1.00000000000000 ) );
#300 = FILL_AREA_STYLE( '', ( #332 ) );
#301 = EDGE_CURVE( '', #333, #333, #334, .T. );
#302 = EDGE_CURVE( '', #335, #335, #336, .T. );
#303 = EDGE_CURVE( '', #337, #337, #338, .T. );
#304 = EDGE_CURVE( '', #339, #339, #340, .T. );
#305 = EDGE_CURVE( '', #341, #341, #342, .T. );
#306 = EDGE_CURVE( '', #343, #343, #344, .T. );
#307 = EDGE_CURVE( '', #345, #345, #346, .T. );
#308 = EDGE_CURVE( '', #347, #347, #348, .T. );
#309 = EDGE_CURVE( '', #349, #349, #350, .T. );
#310 = EDGE_CURVE( '', #351, #351, #352, .T. );
#311 = FILL_AREA_STYLE( '', ( #353 ) );
#312 = EDGE_CURVE( '', #354, #354, #355, .F. );
#313 = FILL_AREA_STYLE( '', ( #356 ) );
#314 = EDGE_CURVE( '', #357, #357, #358, .T. );
#315 = FILL_AREA_STYLE( '', ( #359 ) );
#316 = EDGE_CURVE( '', #360, #360, #361, .T. );
#317 = FILL_AREA_STYLE( '', ( #362 ) );
#318 = EDGE_CURVE( '', #363, #363, #364, .T. );
#319 = FILL_AREA_STYLE( '', ( #365 ) );
#320 = EDGE_CURVE( '', #366, #366, #367, .T. );
#321 = FILL_AREA_STYLE( '', ( #368 ) );
#322 = EDGE_CURVE( '', #369, #369, #370, .T. );
#323 = FILL_AREA_STYLE( '', ( #371 ) );
#324 = EDGE_CURVE( '', #372, #372, #373, .T. );
#325 = FILL_AREA_STYLE( '', ( #374 ) );
#326 = EDGE_CURVE( '', #375, #375, #376, .T. );
#327 = FILL_AREA_STYLE( '', ( #377 ) );
#328 = EDGE_CURVE( '', #378, #378, #379, .T. );
#329 = FILL_AREA_STYLE( '', ( #380 ) );
#330 = EDGE_CURVE( '', #381, #381, #382, .T. );
#331 = FILL_AREA_STYLE( '', ( #383 ) );
#332 = FILL_AREA_STYLE_COLOUR( '', #384 );
#333 = VERTEX_POINT( '', #385 );
#334 = CIRCLE( '', #386, 45.0000000000000 );
#335 = VERTEX_POINT( '', #387 );
#336 = CIRCLE( '', #388, 3.75000000000000 );
#337 = VERTEX_POINT( '', #389 );
#338 = CIRCLE( '', #390, 3.75000000000000 );
#339 = VERTEX_POINT( '', #391 );
#340 = CIRCLE( '', #392, 3.75000000000000 );
#341 = VERTEX_POINT( '', #393 );
#342 = CIRCLE( '', #394, 3.75000000000000 );
#343 = VERTEX_POINT( '', #395 );
#344 = CIRCLE( '', #396, 3.75000000000000 );
#345 = VERTEX_POINT( '', #397 );
#346 = CIRCLE( '', #398, 3.75000000000000 );
#347 = VERTEX_POINT( '', #399 );
#348 = CIRCLE( '', #400, 3.75000000000000 );
#349 = VERTEX_POINT( '', #401 );
#350 = CIRCLE( '', #402, 3.75000000000000 );
#351 = VERTEX_POINT( '', #403 );
#352 = CIRCLE( '', #404, 79.0000000000000 );
#353 = FILL_AREA_STYLE_COLOUR( '', #405 );
#354 = VERTEX_POINT( '', #406 );
#355 = CIRCLE( '', #407, 3.75000000000000 );
#356 = FILL_AREA_STYLE_COLOUR( '', #408 );
#357 = VERTEX_POINT( '', #409 );
#358 = CIRCLE( '', #410, 3.75000000000000 );
#359 = FILL_AREA_STYLE_COLOUR( '', #411 );
#360 = VERTEX_POINT( '', #412 );
#361 = CIRCLE( '', #413, 3.75000000000000 );
#362 = FILL_AREA_STYLE_COLOUR( '', #414 );
#363 = VERTEX_POINT( '', #415 );
#364 = CIRCLE( '', #416, 45.0000000000000 );
#365 = FILL_AREA_STYLE_COLOUR( '', #417 );
#366 = VERTEX_POINT( '', #418 );
#367 = CIRCLE( '', #419, 3.75000000000000 );
#368 = FILL_AREA_STYLE_COLOUR( '', #420 );
#369 = VERTEX_POINT( '', #421 );
#370 = CIRCLE( '', #422, 79.0000000000000 );
#371 = FILL_AREA_STYLE_COLOUR( '', #423 );
#372 = VERTEX_POINT( '', #424 );
#373 = CIRCLE( '', #425, 3.75000000000000 );
#374 = FILL_AREA_STYLE_COLOUR( '', #426 );
#375 = VERTEX_POINT( '', #427 );
#376 = CIRCLE( '', #428, 3.75000000000000 );
#377 = FILL_AREA_STYLE_COLOUR( '', #429 );
#378 = VERTEX_POINT( '', #430 );
#379 = CIRCLE( '', #431, 3.75000000000000 );
#380 = FILL_AREA_STYLE_COLOUR( '', #432 );
#381 = VERTEX_POINT( '', #433 );
#382 = CIRCLE( '', #434, 3.75000000000000 );
#383 = FILL_AREA_STYLE_COLOUR( '', #435 );
#384 = COLOUR_RGB( '', 0.689999997600000, 0.689999997600000, 0.689999997600000 );
#385 = CARTESIAN_POINT( '', ( 0.000000000000000, 0.000000000000000, -45.0000000000000 ) );
#386 = AXIS2_PLACEMENT_3D( '', #436, #437, #438 );
#387 = CARTESIAN_POINT( '', ( 0.000000000000000, 64.0000000000000, -3.75000000000000 ) );
#388 = AXIS2_PLACEMENT_3D( '', #439, #440, #441 );
#389 = CARTESIAN_POINT( '', ( 0.000000000000000, 0.000000000000000, -67.7500000000000 ) );
#390 = AXIS2_PLACEMENT_3D( '', #442, #443, #444 );
#391 = CARTESIAN_POINT( '', ( 0.000000000000000, -45.2548339959390, -49.0048339959391 ) );
#392 = AXIS2_PLACEMENT_3D( '', #445, #446, #447 );
#393 = CARTESIAN_POINT( '', ( 0.000000000000000, -64.0000000000000, -3.75000000000000 ) );
#394 = AXIS2_PLACEMENT_3D( '', #448, #449, #450 );
#395 = CARTESIAN_POINT( '', ( 0.000000000000000, -45.2548339959390, 41.5048339959391 ) );
#396 = AXIS2_PLACEMENT_3D( '', #451, #452, #453 );
#397 = CARTESIAN_POINT( '', ( 0.000000000000000, 0.000000000000000, 60.2500000000000 ) );
#398 = AXIS2_PLACEMENT_3D( '', #454, #455, #456 );
#399 = CARTESIAN_POINT( '', ( 0.000000000000000, 45.2548339959391, 41.5048339959391 ) );
#400 = AXIS2_PLACEMENT_3D( '', #457, #458, #459 );
#401 = CARTESIAN_POINT( '', ( 0.000000000000000, 45.2548339959390, -49.0048339959391 ) );
#402 = AXIS2_PLACEMENT_3D( '', #460, #461, #462 );
#403 = CARTESIAN_POINT( '', ( 0.000000000000000, 0.000000000000000, -79.0000000000000 ) );
#404 = AXIS2_PLACEMENT_3D( '', #463, #464, #465 );
#405 = COLOUR_RGB( '', 0.689999997600000, 0.689999997600000, 0.689999997600000 );
#406 = CARTESIAN_POINT( '', ( 3.00000000000000, 64.0000000000000, -3.75000000000000 ) );
#407 = AXIS2_PLACEMENT_3D( '', #466, #467, #468 );
#408 = COLOUR_RGB( '', 0.689999997600000, 0.689999997600000, 0.689999997600000 );
#409 = CARTESIAN_POINT( '', ( 3.00000000000000, -45.2548339959390, -49.0048339959391 ) );
#410 = AXIS2_PLACEMENT_3D( '', #469, #470, #471 );
#411 = COLOUR_RGB( '', 0.689999997600000, 0.689999997600000, 0.689999997600000 );
#412 = CARTESIAN_POINT( '', ( 3.00000000000000, 45.2548339959390, -49.0048339959391 ) );
#413 = AXIS2_PLACEMENT_3D( '', #472, #473, #474 );
#414 = COLOUR_RGB( '', 0.689999997600000, 0.689999997600000, 0.689999997600000 );
#415 = CARTESIAN_POINT( '', ( 3.00000000000000, 0.000000000000000, -45.0000000000000 ) );
#416 = AXIS2_PLACEMENT_3D( '', #475, #476, #477 );
#417 = COLOUR_RGB( '', 0.689999997600000, 0.689999997600000, 0.689999997600000 );
#418 = CARTESIAN_POINT( '', ( 3.00000000000000, -64.0000000000000, -3.75000000000000 ) );
#419 = AXIS2_PLACEMENT_3D( '', #478, #479, #480 );
#420 = COLOUR_RGB( '', 0.689999997600000, 0.689999997600000, 0.689999997600000 );
#421 = CARTESIAN_POINT( '', ( 3.00000000000000, 0.000000000000000, -79.0000000000000 ) );
#422 = AXIS2_PLACEMENT_3D( '', #481, #482, #483 );
#423 = COLOUR_RGB( '', 0.689999997600000, 0.689999997600000, 0.689999997600000 );
#424 = CARTESIAN_POINT( '', ( 3.00000000000000, 0.000000000000000, -67.7500000000000 ) );
#425 = AXIS2_PLACEMENT_3D( '', #484, #485, #486 );
#426 = COLOUR_RGB( '', 0.689999997600000, 0.689999997600000, 0.689999997600000 );
#427 = CARTESIAN_POINT( '', ( 3.00000000000000, 45.2548339959391, 41.5048339959391 ) );
#428 = AXIS2_PLACEMENT_3D( '', #487, #488, #489 );
#429 = COLOUR_RGB( '', 0.689999997600000, 0.689999997600000, 0.689999997600000 );
#430 = CARTESIAN_POINT( '', ( 3.00000000000000, 0.000000000000000, 60.2500000000000 ) );
#431 = AXIS2_PLACEMENT_3D( '', #490, #491, #492 );
#432 = COLOUR_RGB( '', 0.689999997600000, 0.689999997600000, 0.689999997600000 );
#433 = CARTESIAN_POINT( '', ( 3.00000000000000, -45.2548339959390, 41.5048339959391 ) );
#434 = AXIS2_PLACEMENT_3D( '', #493, #494, #495 );
#435 = COLOUR_RGB( '', 0.689999997600000, 0.689999997600000, 0.689999997600000 );
#436 = CARTESIAN_POINT( '', ( 0.000000000000000, 0.000000000000000, 0.000000000000000 ) );
#437 = DIRECTION( '', ( 1.00000000000000, 0.000000000000000, -0.000000000000000 ) );
#438 = DIRECTION( '', ( -0.000000000000000, 0.000000000000000, -1.00000000000000 ) );
#439 = CARTESIAN_POINT( '', ( 0.000000000000000, 64.0000000000000, 0.000000000000000 ) );
#440 = DIRECTION( '', ( 1.00000000000000, 0.000000000000000, -0.000000000000000 ) );
#441 = DIRECTION( '', ( -0.000000000000000, 0.000000000000000, -1.00000000000000 ) );
#442 = CARTESIAN_POINT( '', ( 0.000000000000000, 0.000000000000000, -64.0000000000000 ) );
#443 = DIRECTION( '', ( 1.00000000000000, 0.000000000000000, -0.000000000000000 ) );
#444 = DIRECTION( '', ( -0.000000000000000, 0.000000000000000, -1.00000000000000 ) );
#445 = CARTESIAN_POINT( '', ( 0.000000000000000, -45.2548339959390, -45.2548339959391 ) );
#446 = DIRECTION( '', ( 1.00000000000000, 0.000000000000000, -0.000000000000000 ) );
#447 = DIRECTION( '', ( -0.000000000000000, 0.000000000000000, -1.00000000000000 ) );
#448 = CARTESIAN_POINT( '', ( 0.000000000000000, -64.0000000000000, 0.000000000000000 ) );
#449 = DIRECTION( '', ( 1.00000000000000, 0.000000000000000, -0.000000000000000 ) );
#450 = DIRECTION( '', ( -0.000000000000000, 0.000000000000000, -1.00000000000000 ) );
#451 = CARTESIAN_POINT( '', ( 0.000000000000000, -45.2548339959390, 45.2548339959391 ) );
#452 = DIRECTION( '', ( 1.00000000000000, 0.000000000000000, -0.000000000000000 ) );
#453 = DIRECTION( '', ( -0.000000000000000, 0.000000000000000, -1.00000000000000 ) );
#454 = CARTESIAN_POINT( '', ( 0.000000000000000, 0.000000000000000, 64.0000000000000 ) );
#455 = DIRECTION( '', ( 1.00000000000000, 0.000000000000000, -0.000000000000000 ) );
#456 = DIRECTION( '', ( -0.000000000000000, 0.000000000000000, -1.00000000000000 ) );
#457 = CARTESIAN_POINT( '', ( 0.000000000000000, 45.2548339959391, 45.2548339959391 ) );
#458 = DIRECTION( '', ( 1.00000000000000, 0.000000000000000, -0.000000000000000 ) );
#459 = DIRECTION( '', ( -0.000000000000000, 0.000000000000000, -1.00000000000000 ) );
#460 = CARTESIAN_POINT( '', ( 0.000000000000000, 45.2548339959390, -45.2548339959390 ) );
#461 = DIRECTION( '', ( 1.00000000000000, 0.000000000000000, -0.000000000000000 ) );
#462 = DIRECTION( '', ( -0.000000000000000, 0.000000000000000, -1.00000000000000 ) );
#463 = CARTESIAN_POINT( '', ( 0.000000000000000, 0.000000000000000, 0.000000000000000 ) );
#464 = DIRECTION( '', ( 1.00000000000000, 0.000000000000000, -0.000000000000000 ) );
#465 = DIRECTION( '', ( -0.000000000000000, 0.000000000000000, -1.00000000000000 ) );
#466 = CARTESIAN_POINT( '', ( 3.00000000000000, 64.0000000000000, 0.000000000000000 ) );
#467 = DIRECTION( '', ( 1.00000000000000, 0.000000000000000, -0.000000000000000 ) );
#468 = DIRECTION( '', ( -0.000000000000000, 0.000000000000000, -1.00000000000000 ) );
#469 = CARTESIAN_POINT( '', ( 3.00000000000000, -45.2548339959390, -45.2548339959391 ) );
#470 = DIRECTION( '', ( 1.00000000000000, 0.000000000000000, -0.000000000000000 ) );
#471 = DIRECTION( '', ( -0.000000000000000, 0.000000000000000, -1.00000000000000 ) );
#472 = CARTESIAN_POINT( '', ( 3.00000000000000, 45.2548339959390, -45.2548339959390 ) );
#473 = DIRECTION( '', ( 1.00000000000000, 0.000000000000000, -0.000000000000000 ) );
#474 = DIRECTION( '', ( -0.000000000000000, 0.000000000000000, -1.00000000000000 ) );
#475 = CARTESIAN_POINT( '', ( 3.00000000000000, 0.000000000000000, 0.000000000000000 ) );
#476 = DIRECTION( '', ( 1.00000000000000, 0.000000000000000, -0.000000000000000 ) );
#477 = DIRECTION( '', ( -0.000000000000000, 0.000000000000000, -1.00000000000000 ) );
#478 = CARTESIAN_POINT( '', ( 3.00000000000000, -64.0000000000000, 0.000000000000000 ) );
#479 = DIRECTION( '', ( 1.00000000000000, 0.000000000000000, -0.000000000000000 ) );
#480 = DIRECTION( '', ( -0.000000000000000, 0.000000000000000, -1.00000000000000 ) );
#481 = CARTESIAN_POINT( '', ( 3.00000000000000, 0.000000000000000, 0.000000000000000 ) );
#482 = DIRECTION( '', ( 1.00000000000000, 0.000000000000000, -0.000000000000000 ) );
#483 = DIRECTION( '', ( -0.000000000000000, 0.000000000000000, -1.00000000000000 ) );
#484 = CARTESIAN_POINT( '', ( 3.00000000000000, 0.000000000000000, -64.0000000000000 ) );
#485 = DIRECTION( '', ( 1.00000000000000, 0.000000000000000, -0.000000000000000 ) );
#486 = DIRECTION( '', ( -0.000000000000000, 0.000000000000000, -1.00000000000000 ) );
#487 = CARTESIAN_POINT( '', ( 3.00000000000000, 45.2548339959391, 45.2548339959391 ) );
#488 = DIRECTION( '', ( 1.00000000000000, 0.000000000000000, -0.000000000000000 ) );
#489 = DIRECTION( '', ( -0.000000000000000, 0.000000000000000, -1.00000000000000 ) );
#490 = CARTESIAN_POINT( '', ( 3.00000000000000, 0.000000000000000, 64.0000000000000 ) );
#491 = DIRECTION( '', ( 1.00000000000000, 0.000000000000000, -0.000000000000000 ) );
#492 = DIRECTION( '', ( -0.000000000000000, 0.000000000000000, -1.00000000000000 ) );
#493 = CARTESIAN_POINT( '', ( 3.00000000000000, -45.2548339959390, 45.2548339959391 ) );
#494 = DIRECTION( '', ( 1.00000000000000, 0.000000000000000, -0.000000000000000 ) );
#495 = DIRECTION( '', ( -0.000000000000000, 0.000000000000000, -1.00000000000000 ) );
ENDSEC;
END-ISO-10303-21;
