ISO-10303-21;
HEADER;
/* Generated by software containing ST-Developer
 * from STEP Tools, Inc. (www.steptools.com) 
 */

FILE_DESCRIPTION(
/* description */ (''),
/* implementation_level */ '2;1');

FILE_NAME(
/* name */ 
'Q:\\Ric010\\FF7\\FIPlastiCAD\\FIP\\Lavoro\\PVC Fittings\\PVC Fittings
 STEP\\TRIV\\TRIV063050.ipt.stp',
/* time_stamp */ '2013-10-01T14:56:33+02:00',
/* author */ ('bfaro'),
/* organization */ (''),
/* preprocessor_version */ 'ST-DEVELOPER v15.2',
/* originating_system */ 'Autodesk Inventor 2014',
/* authorisation */ '');

FILE_SCHEMA (('CONFIG_CONTROL_DESIGN','AUTOMOTIVE_DESIGN { 1 0 10303 214 3 1 1 }'));
ENDSEC;

DATA;
#10=SHAPE_REPRESENTATION_RELATIONSHIP('SRR','None',#451,#11);
#11=ADVANCED_BREP_SHAPE_REPRESENTATION($,(#181),#442);
#12=STYLED_ITEM($,(#459),#181);
#13=PLANE($,#202);
#14=PLANE($,#203);
#15=PLANE($,#204);
#16=PLANE($,#205);
#17=PLANE($,#206);
#18=PLANE($,#207);
#19=FACE_BOUND($,#53,.T.);
#20=FACE_BOUND($,#55,.T.);
#21=FACE_BOUND($,#56,.T.);
#22=FACE_BOUND($,#58,.T.);
#23=FACE_BOUND($,#59,.T.);
#24=FACE_BOUND($,#61,.T.);
#25=FACE_BOUND($,#63,.T.);
#26=FACE_BOUND($,#65,.T.);
#27=FACE_BOUND($,#67,.T.);
#28=FACE_BOUND($,#69,.T.);
#29=FACE_BOUND($,#70,.T.);
#30=FACE_BOUND($,#71,.T.);
#31=FACE_BOUND($,#73,.T.);
#32=FACE_BOUND($,#75,.T.);
#33=FACE_BOUND($,#76,.T.);
#34=FACE_BOUND($,#77,.T.);
#35=FACE_BOUND($,#78,.T.);
#36=FACE_BOUND($,#79,.T.);
#37=B_SPLINE_CURVE_WITH_KNOTS($,3,(#265,#266,#267,#268,#269,#270,#271,#272,
#273,#274,#275,#276,#277,#278,#279,#280,#281,#282,#283,#284,#285,#286,#287,
#288,#289,#290,#291,#292,#293,#294,#295,#296,#297,#298,#299,#300,#301,#302,
#303,#304,#305,#306,#307,#308,#309,#310,#311,#312,#313,#314,#315,#316,#317,
#318,#319,#320,#321,#322,#323,#324,#325,#326,#327,#328,#329,#330),
 .UNSPECIFIED.,.T.,.F.,(4,2,2,2,2,2,2,2,2,2,2,2,2,2,2,2,2,2,2,2,2,2,2,2,
2,2,2,2,2,2,2,2,4),(0.,0.489623584022762,0.979247168045523,1.46887075206828,
1.95849433609105,2.43438602759283,2.91027771909462,3.3861694105964,3.86206110209819,
4.33795279359997,4.81384448510176,5.28973617660355,5.76562786810533,6.25525145212809,
6.74487503615086,7.23449862017362,7.72412220419638,8.21374578820288,8.70336937220938,
9.19299295621588,9.68261654022238,10.1585082317238,10.6343999232253,11.1102916147267,
11.5861833062282,12.0620749977296,12.537966689231,13.0138583807325,13.4897500722339,
13.9793736562404,14.4689972402469,14.9586208242534,15.4482444082599),
 .UNSPECIFIED.);
#38=B_SPLINE_CURVE_WITH_KNOTS($,3,(#343,#344,#345,#346,#347,#348,#349,#350,
#351,#352,#353,#354,#355,#356,#357,#358,#359,#360),.UNSPECIFIED.,.F.,.F.,
(4,2,2,2,2,2,2,2,4),(10.0610629072967,10.7011671149,11.3412713225033,11.9813755301067,
12.62147973771,13.2390083934965,13.856537049283,14.4740657050695,15.091594360856),
 .UNSPECIFIED.);
#39=B_SPLINE_CURVE_WITH_KNOTS($,3,(#362,#363,#364,#365,#366,#367,#368,#369,
#370,#371,#372,#373,#374,#375,#376,#377,#378,#379),.UNSPECIFIED.,.F.,.F.,
(4,2,2,2,2,2,2,2,4),(-10.0610629072967,-9.42095869968639,-8.78085449207612,
-8.14075028446585,-7.50064607685558,-6.88311742105377,-6.26558876525197,
-5.64806010945016,-5.03053145364835),.UNSPECIFIED.);
#40=B_SPLINE_CURVE_WITH_KNOTS($,3,(#381,#382,#383,#384,#385,#386,#387,#388,
#389,#390,#391,#392,#393,#394,#395,#396,#397,#398),.UNSPECIFIED.,.F.,.F.,
(4,2,2,2,2,2,2,2,4),(15.091594360767,15.7091230165688,16.3266516723706,
16.9441803281724,17.5617089839742,18.2018131915845,18.8419173991948,19.482021606805,
20.1221258144153),.UNSPECIFIED.);
#41=B_SPLINE_CURVE_WITH_KNOTS($,3,(#399,#400,#401,#402,#403,#404,#405,#406,
#407,#408,#409,#410,#411,#412,#413,#414,#415,#416),.UNSPECIFIED.,.F.,.F.,
(4,2,2,2,2,2,2,2,4),(-5.03053145355933,-4.41300279777282,-3.79547414198631,
-3.1779454861998,-2.56041683041329,-1.92031262280996,-1.28020841520663,
-0.640104207603302,2.93098878501041E-014),.UNSPECIFIED.);
#42=FACE_OUTER_BOUND($,#52,.T.);
#43=FACE_OUTER_BOUND($,#54,.T.);
#44=FACE_OUTER_BOUND($,#57,.T.);
#45=FACE_OUTER_BOUND($,#60,.T.);
#46=FACE_OUTER_BOUND($,#62,.T.);
#47=FACE_OUTER_BOUND($,#64,.T.);
#48=FACE_OUTER_BOUND($,#66,.T.);
#49=FACE_OUTER_BOUND($,#68,.T.);
#50=FACE_OUTER_BOUND($,#72,.T.);
#51=FACE_OUTER_BOUND($,#74,.T.);
#52=EDGE_LOOP($,(#126));
#53=EDGE_LOOP($,(#127));
#54=EDGE_LOOP($,(#128));
#55=EDGE_LOOP($,(#129));
#56=EDGE_LOOP($,(#130));
#57=EDGE_LOOP($,(#131));
#58=EDGE_LOOP($,(#132));
#59=EDGE_LOOP($,(#133,#134,#135,#136));
#60=EDGE_LOOP($,(#137));
#61=EDGE_LOOP($,(#138));
#62=EDGE_LOOP($,(#139,#140,#141,#142));
#63=EDGE_LOOP($,(#143));
#64=EDGE_LOOP($,(#144));
#65=EDGE_LOOP($,(#145));
#66=EDGE_LOOP($,(#146));
#67=EDGE_LOOP($,(#147));
#68=EDGE_LOOP($,(#148));
#69=EDGE_LOOP($,(#149));
#70=EDGE_LOOP($,(#150));
#71=EDGE_LOOP($,(#151));
#72=EDGE_LOOP($,(#152));
#73=EDGE_LOOP($,(#153));
#74=EDGE_LOOP($,(#154));
#75=EDGE_LOOP($,(#155));
#76=EDGE_LOOP($,(#156));
#77=EDGE_LOOP($,(#157));
#78=EDGE_LOOP($,(#158));
#79=EDGE_LOOP($,(#159));
#80=CIRCLE($,#184,24.);
#81=CIRCLE($,#186,30.5);
#82=CIRCLE($,#187,30.5);
#83=CIRCLE($,#189,38.);
#84=CIRCLE($,#190,38.);
#85=CIRCLE($,#192,31.5);
#86=CIRCLE($,#193,31.5);
#87=CIRCLE($,#195,31.);
#88=CIRCLE($,#197,31.5);
#89=CIRCLE($,#198,31.5);
#90=CIRCLE($,#200,25.);
#91=CIRCLE($,#201,25.);
#92=VERTEX_POINT($,#262);
#93=VERTEX_POINT($,#264);
#94=VERTEX_POINT($,#332);
#95=VERTEX_POINT($,#334);
#96=VERTEX_POINT($,#337);
#97=VERTEX_POINT($,#339);
#98=VERTEX_POINT($,#341);
#99=VERTEX_POINT($,#342);
#100=VERTEX_POINT($,#361);
#101=VERTEX_POINT($,#380);
#102=VERTEX_POINT($,#418);
#103=VERTEX_POINT($,#420);
#104=VERTEX_POINT($,#423);
#105=VERTEX_POINT($,#426);
#106=VERTEX_POINT($,#428);
#107=VERTEX_POINT($,#431);
#108=VERTEX_POINT($,#433);
#109=EDGE_CURVE($,#92,#92,#80,.T.);
#110=EDGE_CURVE($,#93,#93,#37,.T.);
#111=EDGE_CURVE($,#94,#94,#81,.T.);
#112=EDGE_CURVE($,#95,#95,#82,.T.);
#113=EDGE_CURVE($,#96,#96,#83,.T.);
#114=EDGE_CURVE($,#97,#97,#84,.T.);
#115=EDGE_CURVE($,#98,#99,#38,.T.);
#116=EDGE_CURVE($,#98,#100,#39,.T.);
#117=EDGE_CURVE($,#100,#101,#40,.T.);
#118=EDGE_CURVE($,#99,#101,#41,.T.);
#119=EDGE_CURVE($,#102,#102,#85,.T.);
#120=EDGE_CURVE($,#103,#103,#86,.T.);
#121=EDGE_CURVE($,#104,#104,#87,.T.);
#122=EDGE_CURVE($,#105,#105,#88,.T.);
#123=EDGE_CURVE($,#106,#106,#89,.T.);
#124=EDGE_CURVE($,#107,#107,#90,.T.);
#125=EDGE_CURVE($,#108,#108,#91,.T.);
#126=ORIENTED_EDGE($,*,*,#109,.F.);
#127=ORIENTED_EDGE($,*,*,#110,.F.);
#128=ORIENTED_EDGE($,*,*,#111,.F.);
#129=ORIENTED_EDGE($,*,*,#112,.F.);
#130=ORIENTED_EDGE($,*,*,#110,.T.);
#131=ORIENTED_EDGE($,*,*,#113,.F.);
#132=ORIENTED_EDGE($,*,*,#114,.T.);
#133=ORIENTED_EDGE($,*,*,#115,.F.);
#134=ORIENTED_EDGE($,*,*,#116,.T.);
#135=ORIENTED_EDGE($,*,*,#117,.T.);
#136=ORIENTED_EDGE($,*,*,#118,.F.);
#137=ORIENTED_EDGE($,*,*,#119,.T.);
#138=ORIENTED_EDGE($,*,*,#120,.F.);
#139=ORIENTED_EDGE($,*,*,#116,.F.);
#140=ORIENTED_EDGE($,*,*,#115,.T.);
#141=ORIENTED_EDGE($,*,*,#118,.T.);
#142=ORIENTED_EDGE($,*,*,#117,.F.);
#143=ORIENTED_EDGE($,*,*,#121,.F.);
#144=ORIENTED_EDGE($,*,*,#122,.T.);
#145=ORIENTED_EDGE($,*,*,#123,.F.);
#146=ORIENTED_EDGE($,*,*,#124,.T.);
#147=ORIENTED_EDGE($,*,*,#125,.F.);
#148=ORIENTED_EDGE($,*,*,#114,.F.);
#149=ORIENTED_EDGE($,*,*,#120,.T.);
#150=ORIENTED_EDGE($,*,*,#112,.T.);
#151=ORIENTED_EDGE($,*,*,#119,.F.);
#152=ORIENTED_EDGE($,*,*,#113,.T.);
#153=ORIENTED_EDGE($,*,*,#122,.F.);
#154=ORIENTED_EDGE($,*,*,#121,.T.);
#155=ORIENTED_EDGE($,*,*,#124,.F.);
#156=ORIENTED_EDGE($,*,*,#111,.T.);
#157=ORIENTED_EDGE($,*,*,#123,.T.);
#158=ORIENTED_EDGE($,*,*,#109,.T.);
#159=ORIENTED_EDGE($,*,*,#125,.T.);
#160=CYLINDRICAL_SURFACE($,#183,24.);
#161=CYLINDRICAL_SURFACE($,#185,30.5);
#162=CYLINDRICAL_SURFACE($,#188,38.);
#163=CYLINDRICAL_SURFACE($,#191,31.5);
#164=CYLINDRICAL_SURFACE($,#194,31.);
#165=CYLINDRICAL_SURFACE($,#196,31.5);
#166=CYLINDRICAL_SURFACE($,#199,25.);
#167=ADVANCED_FACE($,(#42,#19),#160,.F.);
#168=ADVANCED_FACE($,(#43,#20,#21),#161,.F.);
#169=ADVANCED_FACE($,(#44,#22,#23),#162,.T.);
#170=ADVANCED_FACE($,(#45,#24),#163,.F.);
#171=ADVANCED_FACE($,(#46,#25),#164,.T.);
#172=ADVANCED_FACE($,(#47,#26),#165,.F.);
#173=ADVANCED_FACE($,(#48,#27),#166,.F.);
#174=ADVANCED_FACE($,(#49,#28),#13,.T.);
#175=ADVANCED_FACE($,(#29,#30),#14,.T.);
#176=ADVANCED_FACE($,(#50,#31),#15,.T.);
#177=ADVANCED_FACE($,(#51,#32),#16,.T.);
#178=ADVANCED_FACE($,(#33,#34),#17,.T.);
#179=ADVANCED_FACE($,(#35,#36),#18,.T.);
#180=CLOSED_SHELL($,(#167,#168,#169,#170,#171,#172,#173,#174,#175,#176,
#177,#178,#179));
#181=MANIFOLD_SOLID_BREP('Solido1',#180);
#182=AXIS2_PLACEMENT_3D('placement',#260,#208,#209);
#183=AXIS2_PLACEMENT_3D($,#261,#210,#211);
#184=AXIS2_PLACEMENT_3D($,#263,#212,#213);
#185=AXIS2_PLACEMENT_3D($,#331,#214,#215);
#186=AXIS2_PLACEMENT_3D($,#333,#216,#217);
#187=AXIS2_PLACEMENT_3D($,#335,#218,#219);
#188=AXIS2_PLACEMENT_3D($,#336,#220,#221);
#189=AXIS2_PLACEMENT_3D($,#338,#222,#223);
#190=AXIS2_PLACEMENT_3D($,#340,#224,#225);
#191=AXIS2_PLACEMENT_3D($,#417,#226,#227);
#192=AXIS2_PLACEMENT_3D($,#419,#228,#229);
#193=AXIS2_PLACEMENT_3D($,#421,#230,#231);
#194=AXIS2_PLACEMENT_3D($,#422,#232,#233);
#195=AXIS2_PLACEMENT_3D($,#424,#234,#235);
#196=AXIS2_PLACEMENT_3D($,#425,#236,#237);
#197=AXIS2_PLACEMENT_3D($,#427,#238,#239);
#198=AXIS2_PLACEMENT_3D($,#429,#240,#241);
#199=AXIS2_PLACEMENT_3D($,#430,#242,#243);
#200=AXIS2_PLACEMENT_3D($,#432,#244,#245);
#201=AXIS2_PLACEMENT_3D($,#434,#246,#247);
#202=AXIS2_PLACEMENT_3D($,#435,#248,#249);
#203=AXIS2_PLACEMENT_3D($,#436,#250,#251);
#204=AXIS2_PLACEMENT_3D($,#437,#252,#253);
#205=AXIS2_PLACEMENT_3D($,#438,#254,#255);
#206=AXIS2_PLACEMENT_3D($,#439,#256,#257);
#207=AXIS2_PLACEMENT_3D($,#440,#258,#259);
#208=DIRECTION('axis',(0.,0.,1.));
#209=DIRECTION('refdir',(1.,0.,0.));
#210=DIRECTION('center_axis',(-1.,0.,-4.48966116775454E-011));
#211=DIRECTION('ref_axis',(-4.48966116775454E-011,0.,1.));
#212=DIRECTION('center_axis',(-1.,0.,-4.489664E-011));
#213=DIRECTION('ref_axis',(-4.48966116775454E-011,0.,1.));
#214=DIRECTION('center_axis',(0.,0.,-1.));
#215=DIRECTION('ref_axis',(-1.,0.,0.));
#216=DIRECTION('center_axis',(0.,0.,-1.));
#217=DIRECTION('ref_axis',(-1.,0.,0.));
#218=DIRECTION('center_axis',(0.,0.,1.));
#219=DIRECTION('ref_axis',(-1.,0.,0.));
#220=DIRECTION('center_axis',(0.,0.,1.));
#221=DIRECTION('ref_axis',(1.,0.,0.));
#222=DIRECTION('center_axis',(0.,0.,1.));
#223=DIRECTION('ref_axis',(1.,0.,0.));
#224=DIRECTION('center_axis',(0.,0.,1.));
#225=DIRECTION('ref_axis',(1.,0.,0.));
#226=DIRECTION('center_axis',(0.,0.,1.));
#227=DIRECTION('ref_axis',(1.,0.,0.));
#228=DIRECTION('center_axis',(0.,0.,1.));
#229=DIRECTION('ref_axis',(1.,0.,0.));
#230=DIRECTION('center_axis',(0.,0.,1.));
#231=DIRECTION('ref_axis',(1.,0.,0.));
#232=DIRECTION('center_axis',(1.,0.,4.489664E-011));
#233=DIRECTION('ref_axis',(4.489664E-011,0.,-1.));
#234=DIRECTION('center_axis',(1.,0.,4.489664E-011));
#235=DIRECTION('ref_axis',(4.489664E-011,0.,-1.));
#236=DIRECTION('center_axis',(0.,0.,1.));
#237=DIRECTION('ref_axis',(1.,0.,0.));
#238=DIRECTION('center_axis',(0.,0.,1.));
#239=DIRECTION('ref_axis',(1.,0.,0.));
#240=DIRECTION('center_axis',(0.,0.,1.));
#241=DIRECTION('ref_axis',(1.,0.,0.));
#242=DIRECTION('center_axis',(1.,-8.47582070291436E-015,4.48973409769774E-011));
#243=DIRECTION('ref_axis',(4.48974191158414E-011,0.,-1.));
#244=DIRECTION('center_axis',(1.,0.,4.489664E-011));
#245=DIRECTION('ref_axis',(4.489664E-011,0.,-1.));
#246=DIRECTION('center_axis',(1.,0.,4.489664E-011));
#247=DIRECTION('ref_axis',(4.489664E-011,0.,-1.));
#248=DIRECTION('center_axis',(0.,0.,-1.));
#249=DIRECTION('ref_axis',(-1.,0.,0.));
#250=DIRECTION('center_axis',(0.,0.,-1.));
#251=DIRECTION('ref_axis',(-1.,0.,0.));
#252=DIRECTION('center_axis',(0.,0.,1.));
#253=DIRECTION('ref_axis',(1.,0.,0.));
#254=DIRECTION('center_axis',(1.,0.,4.489664E-011));
#255=DIRECTION('ref_axis',(4.48963533017377E-011,0.,-1.));
#256=DIRECTION('center_axis',(0.,0.,1.));
#257=DIRECTION('ref_axis',(1.,0.,0.));
#258=DIRECTION('center_axis',(1.,0.,4.489664E-011));
#259=DIRECTION('ref_axis',(4.48963533017377E-011,0.,-1.));
#260=CARTESIAN_POINT('',(0.,0.,0.));
#261=CARTESIAN_POINT('Origin',(33.5,0.,71.500000001504));
#262=CARTESIAN_POINT('',(33.5000000010775,2.93915231795365E-015,47.500000001504));
#263=CARTESIAN_POINT('Origin',(33.5,0.,71.500000001504));
#264=CARTESIAN_POINT('',(18.8215302247187,24.,71.500000000845));
#265=CARTESIAN_POINT('Ctrl Pts',(18.8215302247187,24.,71.500000000845));
#266=CARTESIAN_POINT('Ctrl Pts',(18.8215302247187,24.,73.1320786142542));
#267=CARTESIAN_POINT('Ctrl Pts',(19.0401091675997,23.8323874547377,74.7565456970825));
#268=CARTESIAN_POINT('Ctrl Pts',(19.8237937207126,23.1845993935051,77.9079743502813));
#269=CARTESIAN_POINT('Ctrl Pts',(20.3849308000616,22.7046980297533,79.4359778104624));
#270=CARTESIAN_POINT('Ctrl Pts',(21.6793834239206,21.4721450994982,82.3365161955186));
#271=CARTESIAN_POINT('Ctrl Pts',(22.4120072761311,20.7183187447102,83.7114148943852));
#272=CARTESIAN_POINT('Ctrl Pts',(23.8945653138122,18.9893799417197,86.2570605007835));
#273=CARTESIAN_POINT('Ctrl Pts',(24.6441910695569,18.0135951580969,87.4275303399723));
#274=CARTESIAN_POINT('Ctrl Pts',(26.0215236200505,15.956783032857,89.4843424652573));
#275=CARTESIAN_POINT('Ctrl Pts',(26.7042082247495,14.8036365634943,90.4531511093148));
#276=CARTESIAN_POINT('Ctrl Pts',(27.9630141275283,12.2610045811176,92.1890637620564));
#277=CARTESIAN_POINT('Ctrl Pts',(28.5386416479173,10.87130379369,92.9562104766143));
#278=CARTESIAN_POINT('Ctrl Pts',(29.4915109355453,7.93032887850327,94.2082391303954));
#279=CARTESIAN_POINT('Ctrl Pts',(29.8693807832085,6.37565882074791,94.6941942234385));
#280=CARTESIAN_POINT('Ctrl Pts',(30.3737593150788,3.2036976867699,95.3402179569673));
#281=CARTESIAN_POINT('Ctrl Pts',(30.5,1.58630563833929,95.5000000013693));
#282=CARTESIAN_POINT('Ctrl Pts',(30.5,-1.58630563833929,95.5000000013693));
#283=CARTESIAN_POINT('Ctrl Pts',(30.3737593150788,-3.20369768676991,95.3402179569673));
#284=CARTESIAN_POINT('Ctrl Pts',(29.8693807832085,-6.37565882074791,94.6941942234385));
#285=CARTESIAN_POINT('Ctrl Pts',(29.4915109355453,-7.93032887850327,94.2082391303954));
#286=CARTESIAN_POINT('Ctrl Pts',(28.5386416479173,-10.87130379369,92.9562104766143));
#287=CARTESIAN_POINT('Ctrl Pts',(27.9630141275283,-12.2610045811176,92.1890637620564));
#288=CARTESIAN_POINT('Ctrl Pts',(26.7042082247495,-14.8036365634943,90.4531511093148));
#289=CARTESIAN_POINT('Ctrl Pts',(26.0215236200505,-15.956783032857,89.4843424652573));
#290=CARTESIAN_POINT('Ctrl Pts',(24.6441910695569,-18.0135951580969,87.4275303399723));
#291=CARTESIAN_POINT('Ctrl Pts',(23.8945653138122,-18.9893799417197,86.2570605007835));
#292=CARTESIAN_POINT('Ctrl Pts',(22.4120072761311,-20.7183187447102,83.7114148943852));
#293=CARTESIAN_POINT('Ctrl Pts',(21.6793834239206,-21.4721450994982,82.3365161955186));
#294=CARTESIAN_POINT('Ctrl Pts',(20.3849308000616,-22.7046980297533,79.4359778104624));
#295=CARTESIAN_POINT('Ctrl Pts',(19.8237937207126,-23.1845993935051,77.9079743502813));
#296=CARTESIAN_POINT('Ctrl Pts',(19.0401091675997,-23.8323874547377,74.7565456970825));
#297=CARTESIAN_POINT('Ctrl Pts',(18.8215302247187,-24.,73.1320786142542));
#298=CARTESIAN_POINT('Ctrl Pts',(18.8215302247187,-24.,69.86792138749));
#299=CARTESIAN_POINT('Ctrl Pts',(19.0401091675864,-23.8323874547479,68.2434543047125));
#300=CARTESIAN_POINT('Ctrl Pts',(19.8237937206742,-23.1845993935376,65.0920256516214));
#301=CARTESIAN_POINT('Ctrl Pts',(20.3849308000112,-22.7046980297979,63.5640221914972));
#302=CARTESIAN_POINT('Ctrl Pts',(21.6793834238522,-21.4721450995666,60.6634838065647));
#303=CARTESIAN_POINT('Ctrl Pts',(22.4120072760565,-20.7183187447902,59.2885851077637));
#304=CARTESIAN_POINT('Ctrl Pts',(23.8945653137279,-18.9893799418251,56.7429395014983));
#305=CARTESIAN_POINT('Ctrl Pts',(24.6441910694688,-18.0135951582162,55.5724696623768));
#306=CARTESIAN_POINT('Ctrl Pts',(26.0215236199766,-15.9567830329792,53.515657537185));
#307=CARTESIAN_POINT('Ctrl Pts',(26.7042082246922,-14.8036365635997,52.5468488931632));
#308=CARTESIAN_POINT('Ctrl Pts',(27.9630141274976,-12.2610045811899,50.8109362404954));
#309=CARTESIAN_POINT('Ctrl Pts',(28.5386416478968,-10.8713037937461,50.0437895259754));
#310=CARTESIAN_POINT('Ctrl Pts',(29.4915109355385,-7.93032887853178,48.7917608722614));
#311=CARTESIAN_POINT('Ctrl Pts',(29.8693807832052,-6.3756588207651,48.3058057792477));
#312=CARTESIAN_POINT('Ctrl Pts',(30.373759315079,-3.20369768677227,47.6597820457598));
#313=CARTESIAN_POINT('Ctrl Pts',(30.5,-1.58630563833814,47.5000000013693));
#314=CARTESIAN_POINT('Ctrl Pts',(30.5,1.58630563833814,47.5000000013693));
#315=CARTESIAN_POINT('Ctrl Pts',(30.373759315079,3.20369768677227,47.6597820457598));
#316=CARTESIAN_POINT('Ctrl Pts',(29.8693807832052,6.37565882076511,48.3058057792477));
#317=CARTESIAN_POINT('Ctrl Pts',(29.4915109355385,7.93032887853178,48.7917608722614));
#318=CARTESIAN_POINT('Ctrl Pts',(28.5386416478968,10.8713037937461,50.0437895259754));
#319=CARTESIAN_POINT('Ctrl Pts',(27.9630141274976,12.2610045811899,50.8109362404954));
#320=CARTESIAN_POINT('Ctrl Pts',(26.7042082246922,14.8036365635997,52.5468488931632));
#321=CARTESIAN_POINT('Ctrl Pts',(26.0215236199766,15.9567830329792,53.515657537185));
#322=CARTESIAN_POINT('Ctrl Pts',(24.6441910694688,18.0135951582162,55.5724696623768));
#323=CARTESIAN_POINT('Ctrl Pts',(23.8945653137279,18.9893799418251,56.7429395014983));
#324=CARTESIAN_POINT('Ctrl Pts',(22.4120072760565,20.7183187447902,59.2885851077637));
#325=CARTESIAN_POINT('Ctrl Pts',(21.6793834238522,21.4721450995666,60.6634838065647));
#326=CARTESIAN_POINT('Ctrl Pts',(20.3849308000112,22.7046980297979,63.5640221914972));
#327=CARTESIAN_POINT('Ctrl Pts',(19.8237937206742,23.1845993935376,65.0920256516214));
#328=CARTESIAN_POINT('Ctrl Pts',(19.0401091675864,23.8323874547479,68.2434543047125));
#329=CARTESIAN_POINT('Ctrl Pts',(18.8215302247187,24.,69.86792138749));
#330=CARTESIAN_POINT('Ctrl Pts',(18.8215302247187,24.,71.500000000845));
#331=CARTESIAN_POINT('Origin',(0.,0.,105.));
#332=CARTESIAN_POINT('',(30.5,3.73517273739943E-015,105.));
#333=CARTESIAN_POINT('Origin',(0.,0.,105.));
#334=CARTESIAN_POINT('',(30.5,3.73517273739943E-015,38.));
#335=CARTESIAN_POINT('Origin',(0.,0.,38.));
#336=CARTESIAN_POINT('Origin',(0.,0.,0.));
#337=CARTESIAN_POINT('',(-38.,-4.653504E-015,143.));
#338=CARTESIAN_POINT('Origin',(0.,0.,143.));
#339=CARTESIAN_POINT('',(38.,-9.307008E-015,0.));
#340=CARTESIAN_POINT('Origin',(0.,0.,0.));
#341=CARTESIAN_POINT('',(21.977260975836,-31.,71.500000000987));
#342=CARTESIAN_POINT('',(38.,-8.449784E-015,40.500000001706));
#343=CARTESIAN_POINT('Ctrl Pts',(21.9772609758359,-31.,71.5000000009867));
#344=CARTESIAN_POINT('Ctrl Pts',(21.9772609758359,-31.,69.3663193089756));
#345=CARTESIAN_POINT('Ctrl Pts',(22.2966077700239,-30.7790465417126,67.261448419945));
#346=CARTESIAN_POINT('Ctrl Pts',(23.4132849921786,-29.9383784997692,63.1928632258612));
#347=CARTESIAN_POINT('Ctrl Pts',(24.2044545997661,-29.3187654864927,61.2274395273913));
#348=CARTESIAN_POINT('Ctrl Pts',(26.0095170304369,-27.7299597676372,57.4941143368006));
#349=CARTESIAN_POINT('Ctrl Pts',(27.0226733043778,-26.7592408232312,55.7240851291378));
#350=CARTESIAN_POINT('Ctrl Pts',(29.0615156556735,-24.5297808938308,52.4415029893432));
#351=CARTESIAN_POINT('Ctrl Pts',(30.0870767648041,-23.2701186551316,50.9294982229049));
#352=CARTESIAN_POINT('Ctrl Pts',(31.9598973351775,-20.6181075742767,48.2774871421568));
#353=CARTESIAN_POINT('Ctrl Pts',(32.8823322638183,-19.1351659060004,47.030020785568));
#354=CARTESIAN_POINT('Ctrl Pts',(34.5810431578929,-15.8604477721343,44.7908133069975));
#355=CARTESIAN_POINT('Ctrl Pts',(35.3567263971719,-14.0683826037889,43.7990447907828));
#356=CARTESIAN_POINT('Ctrl Pts',(36.6405355303942,-10.270768468784,42.1781025561101));
#357=CARTESIAN_POINT('Ctrl Pts',(37.1495700832575,-8.26075240927723,41.5475198207162));
#358=CARTESIAN_POINT('Ctrl Pts',(37.8294788397798,-4.15465022602972,40.7082806455486));
#359=CARTESIAN_POINT('Ctrl Pts',(38.,-2.05842885262168,40.5000000017061));
#360=CARTESIAN_POINT('Ctrl Pts',(38.,6.93889390390723E-016,40.5000000017061));
#361=CARTESIAN_POINT('',(38.,-9.307008E-015,102.5000000017));
#362=CARTESIAN_POINT('Ctrl Pts',(21.9772609758359,-31.,71.5000000009867));
#363=CARTESIAN_POINT('Ctrl Pts',(21.9772609758359,-31.,73.633680693021));
#364=CARTESIAN_POINT('Ctrl Pts',(22.2966077700288,-30.7790465417089,75.7385515820764));
#365=CARTESIAN_POINT('Ctrl Pts',(23.4132849921757,-29.9383784997713,79.8071367762294));
#366=CARTESIAN_POINT('Ctrl Pts',(24.2044545997511,-29.3187654865041,81.7725604747436));
#367=CARTESIAN_POINT('Ctrl Pts',(26.0095170303894,-27.7299597676808,85.5058856654443));
#368=CARTESIAN_POINT('Ctrl Pts',(27.0226733043099,-26.7592408232979,87.2759148731713));
#369=CARTESIAN_POINT('Ctrl Pts',(29.0615156555684,-24.5297808939533,90.5584970131053));
#370=CARTESIAN_POINT('Ctrl Pts',(30.0870767646825,-23.2701186552865,92.0705017796187));
#371=CARTESIAN_POINT('Ctrl Pts',(31.9598973350479,-20.618107574477,94.722512860535));
#372=CARTESIAN_POINT('Ctrl Pts',(32.8823322636968,-19.1351659062096,95.9699792172218));
#373=CARTESIAN_POINT('Ctrl Pts',(34.5810431577952,-15.8604477723477,98.2091866959816));
#374=CARTESIAN_POINT('Ctrl Pts',(35.3567263970899,-14.0683826039976,99.2009552122876));
#375=CARTESIAN_POINT('Ctrl Pts',(36.6405355303444,-10.2707684689653,100.821897447118));
#376=CARTESIAN_POINT('Ctrl Pts',(37.1495700832242,-8.2607524094357,101.452480182578));
#377=CARTESIAN_POINT('Ctrl Pts',(37.8294788397714,-4.15465022612304,102.291719357838));
#378=CARTESIAN_POINT('Ctrl Pts',(38.,-2.05842885267271,102.500000001706));
#379=CARTESIAN_POINT('Ctrl Pts',(38.,-3.33066907387547E-015,102.500000001706));
#380=CARTESIAN_POINT('',(21.977260975836,31.,71.500000000987));
#381=CARTESIAN_POINT('Ctrl Pts',(38.,3.60822483003176E-015,102.500000001706));
#382=CARTESIAN_POINT('Ctrl Pts',(38.,2.05842885267271,102.500000001706));
#383=CARTESIAN_POINT('Ctrl Pts',(37.8294788397714,4.15465022612305,102.291719357838));
#384=CARTESIAN_POINT('Ctrl Pts',(37.1495700832242,8.2607524094357,101.452480182578));
#385=CARTESIAN_POINT('Ctrl Pts',(36.6405355303444,10.2707684689653,100.821897447118));
#386=CARTESIAN_POINT('Ctrl Pts',(35.3567263970899,14.0683826039976,99.2009552122876));
#387=CARTESIAN_POINT('Ctrl Pts',(34.5810431577952,15.8604477723477,98.2091866959816));
#388=CARTESIAN_POINT('Ctrl Pts',(32.8823322636968,19.1351659062096,95.9699792172218));
#389=CARTESIAN_POINT('Ctrl Pts',(31.9598973350479,20.618107574477,94.722512860535));
#390=CARTESIAN_POINT('Ctrl Pts',(30.0870767646825,23.2701186552865,92.0705017796187));
#391=CARTESIAN_POINT('Ctrl Pts',(29.0615156555684,24.5297808939533,90.5584970131053));
#392=CARTESIAN_POINT('Ctrl Pts',(27.0226733043099,26.7592408232979,87.2759148731713));
#393=CARTESIAN_POINT('Ctrl Pts',(26.0095170303894,27.7299597676808,85.5058856654443));
#394=CARTESIAN_POINT('Ctrl Pts',(24.2044545997511,29.3187654865041,81.7725604747436));
#395=CARTESIAN_POINT('Ctrl Pts',(23.4132849921757,29.9383784997713,79.8071367762294));
#396=CARTESIAN_POINT('Ctrl Pts',(22.2966077700288,30.7790465417089,75.7385515820764));
#397=CARTESIAN_POINT('Ctrl Pts',(21.9772609758359,31.,73.633680693021));
#398=CARTESIAN_POINT('Ctrl Pts',(21.9772609758359,31.,71.5000000009867));
#399=CARTESIAN_POINT('Ctrl Pts',(38.,-7.91033905045424E-015,40.5000000017061));
#400=CARTESIAN_POINT('Ctrl Pts',(38.,2.05842885262167,40.5000000017061));
#401=CARTESIAN_POINT('Ctrl Pts',(37.8294788397798,4.15465022602971,40.7082806455485));
#402=CARTESIAN_POINT('Ctrl Pts',(37.1495700832575,8.26075240927722,41.5475198207162));
#403=CARTESIAN_POINT('Ctrl Pts',(36.6405355303942,10.2707684687839,42.1781025561102));
#404=CARTESIAN_POINT('Ctrl Pts',(35.3567263971719,14.0683826037889,43.7990447907828));
#405=CARTESIAN_POINT('Ctrl Pts',(34.5810431578929,15.8604477721343,44.7908133069975));
#406=CARTESIAN_POINT('Ctrl Pts',(32.8823322638183,19.1351659060004,47.0300207855679));
#407=CARTESIAN_POINT('Ctrl Pts',(31.9598973351775,20.6181075742767,48.2774871421568));
#408=CARTESIAN_POINT('Ctrl Pts',(30.0870767648041,23.2701186551315,50.9294982229049));
#409=CARTESIAN_POINT('Ctrl Pts',(29.0615156556735,24.5297808938308,52.4415029893432));
#410=CARTESIAN_POINT('Ctrl Pts',(27.0226733043778,26.7592408232312,55.7240851291378));
#411=CARTESIAN_POINT('Ctrl Pts',(26.0095170304369,27.7299597676372,57.4941143368006));
#412=CARTESIAN_POINT('Ctrl Pts',(24.2044545997661,29.3187654864927,61.2274395273913));
#413=CARTESIAN_POINT('Ctrl Pts',(23.4132849921786,29.9383784997692,63.1928632258613));
#414=CARTESIAN_POINT('Ctrl Pts',(22.2966077700239,30.7790465417126,67.261448419945));
#415=CARTESIAN_POINT('Ctrl Pts',(21.9772609758359,31.,69.3663193089756));
#416=CARTESIAN_POINT('Ctrl Pts',(21.9772609758359,31.,71.5000000009867));
#417=CARTESIAN_POINT('Origin',(-4.44089209850063E-015,0.,19.));
#418=CARTESIAN_POINT('',(-31.5,-3.85751E-015,38.));
#419=CARTESIAN_POINT('Origin',(0.,0.,38.));
#420=CARTESIAN_POINT('',(-31.5,-3.85751E-015,0.));
#421=CARTESIAN_POINT('Origin',(0.,0.,0.));
#422=CARTESIAN_POINT('Origin',(0.,0.,71.5));
#423=CARTESIAN_POINT('',(64.4999999986082,-3.79628E-015,102.500000002896));
#424=CARTESIAN_POINT('Origin',(64.5,0.,71.500000002896));
#425=CARTESIAN_POINT('Origin',(0.,0.,124.));
#426=CARTESIAN_POINT('',(-31.5,-3.85751E-015,143.));
#427=CARTESIAN_POINT('Origin',(0.,0.,143.));
#428=CARTESIAN_POINT('',(-31.5,-3.85751E-015,105.));
#429=CARTESIAN_POINT('Origin',(0.,0.,105.));
#430=CARTESIAN_POINT('Origin',(49.,0.,71.5000000021999));
#431=CARTESIAN_POINT('',(64.4999999988776,-3.061516E-015,96.5000000028958));
#432=CARTESIAN_POINT('Origin',(64.5,0.,71.500000002896));
#433=CARTESIAN_POINT('',(33.4999999988776,-3.061516E-015,96.500000001504));
#434=CARTESIAN_POINT('Origin',(33.5,0.,71.500000001504));
#435=CARTESIAN_POINT('Origin',(0.,0.,0.));
#436=CARTESIAN_POINT('Origin',(0.,0.,38.));
#437=CARTESIAN_POINT('Origin',(0.,0.,143.));
#438=CARTESIAN_POINT('Origin',(64.5,0.,71.500000002896));
#439=CARTESIAN_POINT('Origin',(0.,0.,105.));
#440=CARTESIAN_POINT('Origin',(33.5,0.,71.500000001504));
#441=UNCERTAINTY_MEASURE_WITH_UNIT(LENGTH_MEASURE(0.01),#443,
'DISTANCE_ACCURACY_VALUE',
'Maximum model space distance between geometric entities at asserted c
onnectivities');
#442=(
GEOMETRIC_REPRESENTATION_CONTEXT(3)
GLOBAL_UNCERTAINTY_ASSIGNED_CONTEXT((#441))
GLOBAL_UNIT_ASSIGNED_CONTEXT((#443,#446,#444))
REPRESENTATION_CONTEXT('','3D')
);
#443=(
LENGTH_UNIT()
NAMED_UNIT(*)
SI_UNIT(.MILLI.,.METRE.)
);
#444=(
NAMED_UNIT(*)
SI_UNIT($,.STERADIAN.)
SOLID_ANGLE_UNIT()
);
#445=DIMENSIONAL_EXPONENTS(0.,0.,0.,0.,0.,0.,0.);
#446=(
CONVERSION_BASED_UNIT('degree',#448)
NAMED_UNIT(#445)
PLANE_ANGLE_UNIT()
);
#447=(
NAMED_UNIT(*)
PLANE_ANGLE_UNIT()
SI_UNIT($,.RADIAN.)
);
#448=PLANE_ANGLE_MEASURE_WITH_UNIT(PLANE_ANGLE_MEASURE(0.01745329252),#447);
#449=SHAPE_DEFINITION_REPRESENTATION(#450,#451);
#450=PRODUCT_DEFINITION_SHAPE('',$,#453);
#451=SHAPE_REPRESENTATION('',(#182),#442);
#452=PRODUCT_DEFINITION_CONTEXT('3D Mechanical Parts',#456,'design');
#453=PRODUCT_DEFINITION('TRIV063050','TRIV063050',#454,#452);
#454=PRODUCT_DEFINITION_FORMATION('',$,#458);
#455=APPLICATION_PROTOCOL_DEFINITION('international standard',
'automotive_design',2009,#456);
#456=APPLICATION_CONTEXT(
'Core Data for Automotive Mechanical Design Process');
#457=PRODUCT_CONTEXT('3D Mechanical Parts',#456,'mechanical');
#458=PRODUCT('TRIV063050','TRIV063050',$,(#457));
#459=PRESENTATION_STYLE_ASSIGNMENT((#460));
#460=SURFACE_STYLE_USAGE(.BOTH.,#461);
#461=SURFACE_SIDE_STYLE($,(#462));
#462=SURFACE_STYLE_FILL_AREA(#463);
#463=FILL_AREA_STYLE($,(#464));
#464=FILL_AREA_STYLE_COLOUR($,#465);
#465=COLOUR_RGB('',0.509803921568627,0.509803921568627,0.588235294117647);
ENDSEC;
END-ISO-10303-21;
