ISO-10303-21;
HEADER;
/* Generated by software containing ST-Developer
 * from STEP Tools, Inc. (www.steptools.com) 
 */

FILE_DESCRIPTION(
/* description */ (''),
/* implementation_level */ '2;1');

FILE_NAME(
/* name */ 
'Q:\\Ric010\\FF7\\FIPlastiCAD\\FIP\\Lavoro\\PVC Fittings\\PVC Fittings
 STEP\\TRIV\\TRIV063032.ipt.stp',
/* time_stamp */ '2013-10-01T14:56:31+02:00',
/* author */ ('bfaro'),
/* organization */ (''),
/* preprocessor_version */ 'ST-DEVELOPER v15.2',
/* originating_system */ 'Autodesk Inventor 2014',
/* authorisation */ '');

FILE_SCHEMA (('AUTOMOTIVE_DESIGN { 1 0 10303 214 3 1 1 }'));
ENDSEC;

DATA;
#10=SHAPE_REPRESENTATION_RELATIONSHIP('SRR','None',#435,#11);
#11=ADVANCED_BREP_SHAPE_REPRESENTATION($,(#181),#426);
#12=STYLED_ITEM($,(#443),#181);
#13=PLANE($,#202);
#14=PLANE($,#203);
#15=PLANE($,#204);
#16=PLANE($,#205);
#17=PLANE($,#206);
#18=PLANE($,#207);
#19=FACE_BOUND($,#53,.T.);
#20=FACE_BOUND($,#55,.T.);
#21=FACE_BOUND($,#56,.T.);
#22=FACE_BOUND($,#58,.T.);
#23=FACE_BOUND($,#59,.T.);
#24=FACE_BOUND($,#61,.T.);
#25=FACE_BOUND($,#63,.T.);
#26=FACE_BOUND($,#65,.T.);
#27=FACE_BOUND($,#67,.T.);
#28=FACE_BOUND($,#69,.T.);
#29=FACE_BOUND($,#70,.T.);
#30=FACE_BOUND($,#71,.T.);
#31=FACE_BOUND($,#73,.T.);
#32=FACE_BOUND($,#75,.T.);
#33=FACE_BOUND($,#76,.T.);
#34=FACE_BOUND($,#77,.T.);
#35=FACE_BOUND($,#78,.T.);
#36=FACE_BOUND($,#79,.T.);
#37=B_SPLINE_CURVE_WITH_KNOTS($,3,(#265,#266,#267,#268,#269,#270,#271,#272,
#273,#274,#275,#276,#277,#278,#279,#280,#281,#282,#283,#284,#285,#286,#287,
#288,#289,#290,#291,#292,#293,#294,#295,#296,#297,#298,#299,#300,#301,#302,
#303,#304,#305,#306,#307,#308,#309,#310,#311,#312,#313,#314),
 .UNSPECIFIED.,.T.,.F.,(4,2,2,2,2,2,2,2,2,2,2,2,2,2,2,2,2,2,2,2,2,2,2,2,
4),(0.,0.298569948771271,0.597139897542541,1.19427979508508,1.78966594498954,
2.08735901994177,2.385052094894,2.68274516984623,2.98043824479846,3.57582439470292,
4.17296429224546,4.47153424101673,4.770104189788,5.06867413855455,5.36724408732109,
5.96438398485419,6.55977013475591,6.85746320970678,7.15515628465764,7.45284935960851,
7.75054243455937,8.3459285844611,8.94306848199419,9.24163843076074,9.54020837952729),
 .UNSPECIFIED.);
#38=B_SPLINE_CURVE_WITH_KNOTS($,3,(#327,#328,#329,#330,#331,#332,#333,#334,
#335,#336,#337,#338,#339,#340,#341,#342,#343,#344),.UNSPECIFIED.,.F.,.F.,
(4,2,2,2,2,2,2,2,4),(6.65645295501365,7.07349359832642,7.4905342416392,
7.90757488495197,8.32461552826475,8.73963150431913,9.15464748037351,9.56966345642789,
9.98467943248227),.UNSPECIFIED.);
#39=B_SPLINE_CURVE_WITH_KNOTS($,3,(#346,#347,#348,#349,#350,#351,#352,#353,
#354,#355,#356,#357,#358,#359,#360,#361,#362,#363),.UNSPECIFIED.,.F.,.F.,
(4,2,2,2,2,2,2,2,4),(-6.65645295501365,-6.23941231169796,-5.82237166838227,
-5.40533102506658,-4.9882903817509,-4.57327440568988,-4.15825842962887,
-3.74324245356785,-3.32822647750684),.UNSPECIFIED.);
#40=B_SPLINE_CURVE_WITH_KNOTS($,3,(#365,#366,#367,#368,#369,#370,#371,#372,
#373,#374,#375,#376,#377,#378,#379,#380,#381,#382),.UNSPECIFIED.,.F.,.F.,
(4,2,2,2,2,2,2,2,4),(9.98467943244403,10.399695408505,10.8147113845661,
11.2297273606271,11.6447433366881,12.0617839800038,12.4788246233195,12.8958652666352,
13.3129059099508),.UNSPECIFIED.);
#41=B_SPLINE_CURVE_WITH_KNOTS($,3,(#383,#384,#385,#386,#387,#388,#389,#390,
#391,#392,#393,#394,#395,#396,#397,#398,#399,#400),.UNSPECIFIED.,.F.,.F.,
(4,2,2,2,2,2,2,2,4),(-3.3282264774686,-2.91321050141422,-2.49819452535984,
-2.08317854930545,-1.66816257325107,-1.2511219299383,-0.834081286625524,
-0.417040643312749,2.57571741713036E-014),.UNSPECIFIED.);
#42=FACE_OUTER_BOUND($,#52,.T.);
#43=FACE_OUTER_BOUND($,#54,.T.);
#44=FACE_OUTER_BOUND($,#57,.T.);
#45=FACE_OUTER_BOUND($,#60,.T.);
#46=FACE_OUTER_BOUND($,#62,.T.);
#47=FACE_OUTER_BOUND($,#64,.T.);
#48=FACE_OUTER_BOUND($,#66,.T.);
#49=FACE_OUTER_BOUND($,#68,.T.);
#50=FACE_OUTER_BOUND($,#72,.T.);
#51=FACE_OUTER_BOUND($,#74,.T.);
#52=EDGE_LOOP($,(#126));
#53=EDGE_LOOP($,(#127));
#54=EDGE_LOOP($,(#128));
#55=EDGE_LOOP($,(#129));
#56=EDGE_LOOP($,(#130));
#57=EDGE_LOOP($,(#131));
#58=EDGE_LOOP($,(#132));
#59=EDGE_LOOP($,(#133,#134,#135,#136));
#60=EDGE_LOOP($,(#137));
#61=EDGE_LOOP($,(#138));
#62=EDGE_LOOP($,(#139,#140,#141,#142));
#63=EDGE_LOOP($,(#143));
#64=EDGE_LOOP($,(#144));
#65=EDGE_LOOP($,(#145));
#66=EDGE_LOOP($,(#146));
#67=EDGE_LOOP($,(#147));
#68=EDGE_LOOP($,(#148));
#69=EDGE_LOOP($,(#149));
#70=EDGE_LOOP($,(#150));
#71=EDGE_LOOP($,(#151));
#72=EDGE_LOOP($,(#152));
#73=EDGE_LOOP($,(#153));
#74=EDGE_LOOP($,(#154));
#75=EDGE_LOOP($,(#155));
#76=EDGE_LOOP($,(#156));
#77=EDGE_LOOP($,(#157));
#78=EDGE_LOOP($,(#158));
#79=EDGE_LOOP($,(#159));
#80=CIRCLE($,#184,15.5);
#81=CIRCLE($,#186,30.5);
#82=CIRCLE($,#187,30.5);
#83=CIRCLE($,#189,38.);
#84=CIRCLE($,#190,38.);
#85=CIRCLE($,#192,31.5);
#86=CIRCLE($,#193,31.5);
#87=CIRCLE($,#195,21.5);
#88=CIRCLE($,#197,31.5);
#89=CIRCLE($,#198,31.5);
#90=CIRCLE($,#200,16.);
#91=CIRCLE($,#201,16.);
#92=VERTEX_POINT($,#262);
#93=VERTEX_POINT($,#264);
#94=VERTEX_POINT($,#316);
#95=VERTEX_POINT($,#318);
#96=VERTEX_POINT($,#321);
#97=VERTEX_POINT($,#323);
#98=VERTEX_POINT($,#325);
#99=VERTEX_POINT($,#326);
#100=VERTEX_POINT($,#345);
#101=VERTEX_POINT($,#364);
#102=VERTEX_POINT($,#402);
#103=VERTEX_POINT($,#404);
#104=VERTEX_POINT($,#407);
#105=VERTEX_POINT($,#410);
#106=VERTEX_POINT($,#412);
#107=VERTEX_POINT($,#415);
#108=VERTEX_POINT($,#417);
#109=EDGE_CURVE($,#92,#92,#80,.T.);
#110=EDGE_CURVE($,#93,#93,#37,.T.);
#111=EDGE_CURVE($,#94,#94,#81,.T.);
#112=EDGE_CURVE($,#95,#95,#82,.T.);
#113=EDGE_CURVE($,#96,#96,#83,.T.);
#114=EDGE_CURVE($,#97,#97,#84,.T.);
#115=EDGE_CURVE($,#98,#99,#38,.T.);
#116=EDGE_CURVE($,#98,#100,#39,.T.);
#117=EDGE_CURVE($,#100,#101,#40,.T.);
#118=EDGE_CURVE($,#99,#101,#41,.T.);
#119=EDGE_CURVE($,#102,#102,#85,.T.);
#120=EDGE_CURVE($,#103,#103,#86,.T.);
#121=EDGE_CURVE($,#104,#104,#87,.T.);
#122=EDGE_CURVE($,#105,#105,#88,.T.);
#123=EDGE_CURVE($,#106,#106,#89,.T.);
#124=EDGE_CURVE($,#107,#107,#90,.T.);
#125=EDGE_CURVE($,#108,#108,#91,.T.);
#126=ORIENTED_EDGE($,*,*,#109,.F.);
#127=ORIENTED_EDGE($,*,*,#110,.F.);
#128=ORIENTED_EDGE($,*,*,#111,.F.);
#129=ORIENTED_EDGE($,*,*,#112,.F.);
#130=ORIENTED_EDGE($,*,*,#110,.T.);
#131=ORIENTED_EDGE($,*,*,#113,.F.);
#132=ORIENTED_EDGE($,*,*,#114,.T.);
#133=ORIENTED_EDGE($,*,*,#115,.F.);
#134=ORIENTED_EDGE($,*,*,#116,.T.);
#135=ORIENTED_EDGE($,*,*,#117,.T.);
#136=ORIENTED_EDGE($,*,*,#118,.F.);
#137=ORIENTED_EDGE($,*,*,#119,.T.);
#138=ORIENTED_EDGE($,*,*,#120,.F.);
#139=ORIENTED_EDGE($,*,*,#116,.F.);
#140=ORIENTED_EDGE($,*,*,#115,.T.);
#141=ORIENTED_EDGE($,*,*,#118,.T.);
#142=ORIENTED_EDGE($,*,*,#117,.F.);
#143=ORIENTED_EDGE($,*,*,#121,.F.);
#144=ORIENTED_EDGE($,*,*,#122,.T.);
#145=ORIENTED_EDGE($,*,*,#123,.F.);
#146=ORIENTED_EDGE($,*,*,#124,.T.);
#147=ORIENTED_EDGE($,*,*,#125,.F.);
#148=ORIENTED_EDGE($,*,*,#114,.F.);
#149=ORIENTED_EDGE($,*,*,#120,.T.);
#150=ORIENTED_EDGE($,*,*,#112,.T.);
#151=ORIENTED_EDGE($,*,*,#119,.F.);
#152=ORIENTED_EDGE($,*,*,#113,.T.);
#153=ORIENTED_EDGE($,*,*,#122,.F.);
#154=ORIENTED_EDGE($,*,*,#121,.T.);
#155=ORIENTED_EDGE($,*,*,#124,.F.);
#156=ORIENTED_EDGE($,*,*,#111,.T.);
#157=ORIENTED_EDGE($,*,*,#123,.T.);
#158=ORIENTED_EDGE($,*,*,#109,.T.);
#159=ORIENTED_EDGE($,*,*,#125,.T.);
#160=CYLINDRICAL_SURFACE($,#183,15.5);
#161=CYLINDRICAL_SURFACE($,#185,30.5);
#162=CYLINDRICAL_SURFACE($,#188,38.);
#163=CYLINDRICAL_SURFACE($,#191,31.5);
#164=CYLINDRICAL_SURFACE($,#194,21.5);
#165=CYLINDRICAL_SURFACE($,#196,31.5);
#166=CYLINDRICAL_SURFACE($,#199,16.);
#167=ADVANCED_FACE($,(#42,#19),#160,.F.);
#168=ADVANCED_FACE($,(#43,#20,#21),#161,.F.);
#169=ADVANCED_FACE($,(#44,#22,#23),#162,.T.);
#170=ADVANCED_FACE($,(#45,#24),#163,.F.);
#171=ADVANCED_FACE($,(#46,#25),#164,.T.);
#172=ADVANCED_FACE($,(#47,#26),#165,.F.);
#173=ADVANCED_FACE($,(#48,#27),#166,.F.);
#174=ADVANCED_FACE($,(#49,#28),#13,.T.);
#175=ADVANCED_FACE($,(#29,#30),#14,.T.);
#176=ADVANCED_FACE($,(#50,#31),#15,.T.);
#177=ADVANCED_FACE($,(#51,#32),#16,.T.);
#178=ADVANCED_FACE($,(#33,#34),#17,.T.);
#179=ADVANCED_FACE($,(#35,#36),#18,.T.);
#180=CLOSED_SHELL($,(#167,#168,#169,#170,#171,#172,#173,#174,#175,#176,
#177,#178,#179));
#181=MANIFOLD_SOLID_BREP('Solido1',#180);
#182=AXIS2_PLACEMENT_3D('placement',#260,#208,#209);
#183=AXIS2_PLACEMENT_3D($,#261,#210,#211);
#184=AXIS2_PLACEMENT_3D($,#263,#212,#213);
#185=AXIS2_PLACEMENT_3D($,#315,#214,#215);
#186=AXIS2_PLACEMENT_3D($,#317,#216,#217);
#187=AXIS2_PLACEMENT_3D($,#319,#218,#219);
#188=AXIS2_PLACEMENT_3D($,#320,#220,#221);
#189=AXIS2_PLACEMENT_3D($,#322,#222,#223);
#190=AXIS2_PLACEMENT_3D($,#324,#224,#225);
#191=AXIS2_PLACEMENT_3D($,#401,#226,#227);
#192=AXIS2_PLACEMENT_3D($,#403,#228,#229);
#193=AXIS2_PLACEMENT_3D($,#405,#230,#231);
#194=AXIS2_PLACEMENT_3D($,#406,#232,#233);
#195=AXIS2_PLACEMENT_3D($,#408,#234,#235);
#196=AXIS2_PLACEMENT_3D($,#409,#236,#237);
#197=AXIS2_PLACEMENT_3D($,#411,#238,#239);
#198=AXIS2_PLACEMENT_3D($,#413,#240,#241);
#199=AXIS2_PLACEMENT_3D($,#414,#242,#243);
#200=AXIS2_PLACEMENT_3D($,#416,#244,#245);
#201=AXIS2_PLACEMENT_3D($,#418,#246,#247);
#202=AXIS2_PLACEMENT_3D($,#419,#248,#249);
#203=AXIS2_PLACEMENT_3D($,#420,#250,#251);
#204=AXIS2_PLACEMENT_3D($,#421,#252,#253);
#205=AXIS2_PLACEMENT_3D($,#422,#254,#255);
#206=AXIS2_PLACEMENT_3D($,#423,#256,#257);
#207=AXIS2_PLACEMENT_3D($,#424,#258,#259);
#208=DIRECTION('axis',(0.,0.,1.));
#209=DIRECTION('refdir',(1.,0.,0.));
#210=DIRECTION('center_axis',(-1.,0.,-4.48966116780247E-011));
#211=DIRECTION('ref_axis',(-4.48966116780247E-011,0.,1.));
#212=DIRECTION('center_axis',(-1.,0.,-4.489664E-011));
#213=DIRECTION('ref_axis',(-4.48966116780247E-011,0.,1.));
#214=DIRECTION('center_axis',(0.,0.,-1.));
#215=DIRECTION('ref_axis',(-1.,0.,0.));
#216=DIRECTION('center_axis',(0.,0.,-1.));
#217=DIRECTION('ref_axis',(-1.,0.,0.));
#218=DIRECTION('center_axis',(0.,0.,1.));
#219=DIRECTION('ref_axis',(-1.,0.,0.));
#220=DIRECTION('center_axis',(0.,0.,1.));
#221=DIRECTION('ref_axis',(1.,0.,0.));
#222=DIRECTION('center_axis',(0.,0.,1.));
#223=DIRECTION('ref_axis',(1.,0.,0.));
#224=DIRECTION('center_axis',(0.,0.,1.));
#225=DIRECTION('ref_axis',(1.,0.,0.));
#226=DIRECTION('center_axis',(0.,0.,1.));
#227=DIRECTION('ref_axis',(1.,0.,0.));
#228=DIRECTION('center_axis',(0.,0.,1.));
#229=DIRECTION('ref_axis',(1.,0.,0.));
#230=DIRECTION('center_axis',(0.,0.,1.));
#231=DIRECTION('ref_axis',(1.,0.,0.));
#232=DIRECTION('center_axis',(1.,0.,4.489664E-011));
#233=DIRECTION('ref_axis',(4.489664E-011,0.,-1.));
#234=DIRECTION('center_axis',(1.,0.,4.489664E-011));
#235=DIRECTION('ref_axis',(4.489664E-011,0.,-1.));
#236=DIRECTION('center_axis',(0.,0.,1.));
#237=DIRECTION('ref_axis',(1.,0.,0.));
#238=DIRECTION('center_axis',(0.,0.,1.));
#239=DIRECTION('ref_axis',(1.,0.,0.));
#240=DIRECTION('center_axis',(0.,0.,1.));
#241=DIRECTION('ref_axis',(1.,0.,0.));
#242=DIRECTION('center_axis',(1.,1.5639907249234E-014,4.48966116809141E-011));
#243=DIRECTION('ref_axis',(4.48968640043289E-011,0.,-1.));
#244=DIRECTION('center_axis',(1.,0.,4.489664E-011));
#245=DIRECTION('ref_axis',(4.489664E-011,0.,-1.));
#246=DIRECTION('center_axis',(1.,0.,4.489664E-011));
#247=DIRECTION('ref_axis',(4.489664E-011,0.,-1.));
#248=DIRECTION('center_axis',(0.,0.,-1.));
#249=DIRECTION('ref_axis',(-1.,0.,0.));
#250=DIRECTION('center_axis',(0.,0.,-1.));
#251=DIRECTION('ref_axis',(-1.,0.,0.));
#252=DIRECTION('center_axis',(0.,0.,1.));
#253=DIRECTION('ref_axis',(1.,0.,0.));
#254=DIRECTION('center_axis',(1.,0.,4.489664E-011));
#255=DIRECTION('ref_axis',(4.48963533017377E-011,0.,-1.));
#256=DIRECTION('center_axis',(0.,0.,1.));
#257=DIRECTION('ref_axis',(1.,0.,0.));
#258=DIRECTION('center_axis',(1.,0.,4.489664E-011));
#259=DIRECTION('ref_axis',(4.48963533017377E-011,0.,-1.));
#260=CARTESIAN_POINT('',(0.,0.,0.));
#261=CARTESIAN_POINT('Origin',(33.5,0.,71.500000001504));
#262=CARTESIAN_POINT('',(33.5000000006959,1.8982025386784E-015,56.000000001504));
#263=CARTESIAN_POINT('Origin',(33.5,0.,71.500000001504));
#264=CARTESIAN_POINT('',(26.2678510731274,15.5,71.5000000011793));
#265=CARTESIAN_POINT('Ctrl Pts',(26.2678510731274,15.5,71.5000000011793));
#266=CARTESIAN_POINT('Ctrl Pts',(26.2678510731274,15.5,72.4952331637502));
#267=CARTESIAN_POINT('Ctrl Pts',(26.3260748160656,15.4026446204991,73.5167179367309));
#268=CARTESIAN_POINT('Ctrl Pts',(26.5570241000754,15.0009382115562,75.5349058951914));
#269=CARTESIAN_POINT('Ctrl Pts',(26.729352323764,14.696755787028,76.5316880830783));
#270=CARTESIAN_POINT('Ctrl Pts',(27.3628543620523,13.5031736040096,79.3844482386472));
#271=CARTESIAN_POINT('Ctrl Pts',(27.9397569850089,12.3181853264564,81.1021248915809));
#272=CARTESIAN_POINT('Ctrl Pts',(28.9840969580374,9.60611330626923,83.814196911815));
#273=CARTESIAN_POINT('Ctrl Pts',(29.5265448553113,7.88710894472924,85.0021014430132));
#274=CARTESIAN_POINT('Ctrl Pts',(30.0980563226433,5.02994444152624,86.1974647825744));
#275=CARTESIAN_POINT('Ctrl Pts',(30.2493760610573,4.0316543844973,86.5018304344235));
#276=CARTESIAN_POINT('Ctrl Pts',(30.4504087897795,2.01285709800653,86.9031671992485));
#277=CARTESIAN_POINT('Ctrl Pts',(30.5,0.992310249840764,87.0000000013693));
#278=CARTESIAN_POINT('Ctrl Pts',(30.5,-0.992310249840763,87.0000000013693));
#279=CARTESIAN_POINT('Ctrl Pts',(30.4504087897795,-2.01285709800653,86.9031671992485));
#280=CARTESIAN_POINT('Ctrl Pts',(30.2493760610573,-4.0316543844973,86.5018304344235));
#281=CARTESIAN_POINT('Ctrl Pts',(30.0980563226433,-5.02994444152624,86.1974647825744));
#282=CARTESIAN_POINT('Ctrl Pts',(29.5265448553113,-7.88710894472924,85.0021014430132));
#283=CARTESIAN_POINT('Ctrl Pts',(28.9840969580374,-9.60611330626923,83.814196911815));
#284=CARTESIAN_POINT('Ctrl Pts',(27.9397569850089,-12.3181853264564,81.1021248915809));
#285=CARTESIAN_POINT('Ctrl Pts',(27.3628543620523,-13.5031736040096,79.3844482386472));
#286=CARTESIAN_POINT('Ctrl Pts',(26.729352323764,-14.696755787028,76.5316880830783));
#287=CARTESIAN_POINT('Ctrl Pts',(26.5570241000754,-15.0009382115562,75.5349058951913));
#288=CARTESIAN_POINT('Ctrl Pts',(26.3260748160656,-15.4026446204991,73.5167179367309));
#289=CARTESIAN_POINT('Ctrl Pts',(26.2678510731274,-15.5,72.4952331637502));
#290=CARTESIAN_POINT('Ctrl Pts',(26.2678510731274,-15.5,70.5047668386242));
#291=CARTESIAN_POINT('Ctrl Pts',(26.3260748160638,-15.402644620502,69.4832820656589));
#292=CARTESIAN_POINT('Ctrl Pts',(26.5570241000699,-15.0009382115659,67.4650941072309));
#293=CARTESIAN_POINT('Ctrl Pts',(26.7293523237566,-14.6967557870413,66.468311919361));
#294=CARTESIAN_POINT('Ctrl Pts',(27.3628543620413,-13.5031736040315,63.6155517638477));
#295=CARTESIAN_POINT('Ctrl Pts',(27.9397569849987,-12.3181853264795,61.8978751109573));
#296=CARTESIAN_POINT('Ctrl Pts',(28.9840969580336,-9.60611330628278,59.1858030907947));
#297=CARTESIAN_POINT('Ctrl Pts',(29.5265448553115,-7.88710894473027,57.9978985596378));
#298=CARTESIAN_POINT('Ctrl Pts',(30.0980563226447,-5.02994444151855,56.8025352201253));
#299=CARTESIAN_POINT('Ctrl Pts',(30.2493760610585,-4.03165438448844,56.4981695682904));
#300=CARTESIAN_POINT('Ctrl Pts',(30.45040878978,-2.01285709799924,56.0968328034848));
#301=CARTESIAN_POINT('Ctrl Pts',(30.5,-0.992310249836215,56.0000000013693));
#302=CARTESIAN_POINT('Ctrl Pts',(30.5,0.992310249836209,56.0000000013693));
#303=CARTESIAN_POINT('Ctrl Pts',(30.45040878978,2.01285709799923,56.0968328034848));
#304=CARTESIAN_POINT('Ctrl Pts',(30.2493760610585,4.03165438448843,56.4981695682904));
#305=CARTESIAN_POINT('Ctrl Pts',(30.0980563226447,5.02994444151854,56.8025352201253));
#306=CARTESIAN_POINT('Ctrl Pts',(29.5265448553115,7.88710894473027,57.9978985596377));
#307=CARTESIAN_POINT('Ctrl Pts',(28.9840969580337,9.60611330628278,59.1858030907947));
#308=CARTESIAN_POINT('Ctrl Pts',(27.9397569849987,12.3181853264795,61.8978751109573));
#309=CARTESIAN_POINT('Ctrl Pts',(27.3628543620413,13.5031736040315,63.6155517638477));
#310=CARTESIAN_POINT('Ctrl Pts',(26.7293523237566,14.6967557870413,66.468311919361));
#311=CARTESIAN_POINT('Ctrl Pts',(26.5570241000699,15.0009382115659,67.4650941072309));
#312=CARTESIAN_POINT('Ctrl Pts',(26.3260748160638,15.402644620502,69.4832820656588));
#313=CARTESIAN_POINT('Ctrl Pts',(26.2678510731274,15.5,70.5047668386242));
#314=CARTESIAN_POINT('Ctrl Pts',(26.2678510731274,15.5,71.5000000011793));
#315=CARTESIAN_POINT('Origin',(0.,0.,105.));
#316=CARTESIAN_POINT('',(30.5,3.73517273739943E-015,105.));
#317=CARTESIAN_POINT('Origin',(0.,0.,105.));
#318=CARTESIAN_POINT('',(30.5,3.73517273739943E-015,38.));
#319=CARTESIAN_POINT('Origin',(0.,0.,38.));
#320=CARTESIAN_POINT('Origin',(0.,0.,0.));
#321=CARTESIAN_POINT('',(-38.,-4.653504E-015,143.));
#322=CARTESIAN_POINT('Origin',(0.,0.,143.));
#323=CARTESIAN_POINT('',(38.,-9.307008E-015,0.));
#324=CARTESIAN_POINT('Origin',(0.,0.,0.));
#325=CARTESIAN_POINT('',(31.332890067787,-21.5,71.500000001407));
#326=CARTESIAN_POINT('',(38.,-7.286408E-015,50.000000001706));
#327=CARTESIAN_POINT('Ctrl Pts',(31.3328900677866,-21.5,71.5000000014067));
#328=CARTESIAN_POINT('Ctrl Pts',(31.3328900677866,-21.5,70.1098645236975));
#329=CARTESIAN_POINT('Ctrl Pts',(31.4281829624651,-21.3631205756312,68.687055853548));
#330=CARTESIAN_POINT('Ctrl Pts',(31.8021822249205,-20.802278963207,65.8821030447429));
#331=CARTESIAN_POINT('Ctrl Pts',(32.0800968740814,-20.3785879436471,64.4997991874325));
#332=CARTESIAN_POINT('Ctrl Pts',(32.755873371611,-19.2736120243974,61.8658075985274));
#333=CARTESIAN_POINT('Ctrl Pts',(33.1533372430495,-18.5914365103413,60.6114420741165));
#334=CARTESIAN_POINT('Ctrl Pts',(33.9839322197558,-17.0257931556319,58.2967968699522));
#335=CARTESIAN_POINT('Ctrl Pts',(34.4163444163409,-16.1420423014919,57.2364507120106));
#336=CARTESIAN_POINT('Ctrl Pts',(35.2343749722043,-14.268109184698,55.3625175952633));
#337=CARTESIAN_POINT('Ctrl Pts',(35.6508600645498,-13.2100845375657,54.4794803520173));
#338=CARTESIAN_POINT('Ctrl Pts',(36.4252070482425,-10.8946981735949,52.9121013986799));
#339=CARTESIAN_POINT('Ctrl Pts',(36.7825323969735,-9.63723608633989,52.2276429357341));
#340=CARTESIAN_POINT('Ctrl Pts',(37.3748478887101,-6.99655329445091,51.1199037912152));
#341=CARTESIAN_POINT('Ctrl Pts',(37.6100200442527,-5.6107055530775,50.695731624403));
#342=CARTESIAN_POINT('Ctrl Pts',(37.9226891116301,-2.80415318446632,50.1356763651779));
#343=CARTESIAN_POINT('Ctrl Pts',(38.,-1.38338658684792,50.0000000017061));
#344=CARTESIAN_POINT('Ctrl Pts',(38.,-2.77555756156289E-016,50.0000000017061));
#345=CARTESIAN_POINT('',(38.,-9.307008E-015,93.000000001706));
#346=CARTESIAN_POINT('Ctrl Pts',(31.3328900677866,-21.5,71.5000000014067));
#347=CARTESIAN_POINT('Ctrl Pts',(31.3328900677866,-21.5,72.8901354791257));
#348=CARTESIAN_POINT('Ctrl Pts',(31.4281829624662,-21.3631205756295,74.3129441492849));
#349=CARTESIAN_POINT('Ctrl Pts',(31.802182224921,-20.8022789632063,77.1178969581142));
#350=CARTESIAN_POINT('Ctrl Pts',(32.0800968740799,-20.3785879436492,78.5002008154393));
#351=CARTESIAN_POINT('Ctrl Pts',(32.7558733716021,-19.2736120244124,81.1341924043822));
#352=CARTESIAN_POINT('Ctrl Pts',(33.1533372430351,-18.5914365103663,82.3885579288157));
#353=CARTESIAN_POINT('Ctrl Pts',(33.9839322197301,-17.0257931556824,84.7032031330325));
#354=CARTESIAN_POINT('Ctrl Pts',(34.4163444163096,-16.1420423015578,85.7635492910039));
#355=CARTESIAN_POINT('Ctrl Pts',(35.2343749721685,-14.268109184786,87.6374824078225));
#356=CARTESIAN_POINT('Ctrl Pts',(35.6508600645154,-13.2100845376585,88.5205196511122));
#357=CARTESIAN_POINT('Ctrl Pts',(36.4252070482139,-10.8946981736905,90.087898604535));
#358=CARTESIAN_POINT('Ctrl Pts',(36.7825323969492,-9.63723608643348,90.7723570675227));
#359=CARTESIAN_POINT('Ctrl Pts',(37.3748478886952,-6.99655329453211,91.8800962121136));
#360=CARTESIAN_POINT('Ctrl Pts',(37.6100200442427,-5.61070555314813,92.3042683789562));
#361=CARTESIAN_POINT('Ctrl Pts',(37.9226891116277,-2.80415318450742,92.8643236382229));
#362=CARTESIAN_POINT('Ctrl Pts',(38.,-1.38338658687006,93.0000000017061));
#363=CARTESIAN_POINT('Ctrl Pts',(38.,-2.35922392732846E-015,93.0000000017061));
#364=CARTESIAN_POINT('',(31.332890067787,21.5,71.500000001407));
#365=CARTESIAN_POINT('Ctrl Pts',(38.,2.35922392732846E-015,93.0000000017061));
#366=CARTESIAN_POINT('Ctrl Pts',(38.,1.38338658687007,93.0000000017061));
#367=CARTESIAN_POINT('Ctrl Pts',(37.9226891116277,2.80415318450742,92.864323638223));
#368=CARTESIAN_POINT('Ctrl Pts',(37.6100200442427,5.61070555314813,92.3042683789562));
#369=CARTESIAN_POINT('Ctrl Pts',(37.3748478886952,6.99655329453212,91.8800962121136));
#370=CARTESIAN_POINT('Ctrl Pts',(36.7825323969492,9.63723608643348,90.7723570675227));
#371=CARTESIAN_POINT('Ctrl Pts',(36.4252070482139,10.8946981736905,90.087898604535));
#372=CARTESIAN_POINT('Ctrl Pts',(35.6508600645154,13.2100845376584,88.5205196511122));
#373=CARTESIAN_POINT('Ctrl Pts',(35.2343749721685,14.268109184786,87.6374824078225));
#374=CARTESIAN_POINT('Ctrl Pts',(34.4163444163096,16.1420423015578,85.7635492910039));
#375=CARTESIAN_POINT('Ctrl Pts',(33.9839322197301,17.0257931556824,84.7032031330325));
#376=CARTESIAN_POINT('Ctrl Pts',(33.1533372430351,18.5914365103663,82.3885579288157));
#377=CARTESIAN_POINT('Ctrl Pts',(32.7558733716021,19.2736120244124,81.1341924043822));
#378=CARTESIAN_POINT('Ctrl Pts',(32.0800968740799,20.3785879436492,78.5002008154393));
#379=CARTESIAN_POINT('Ctrl Pts',(31.802182224921,20.8022789632063,77.1178969581142));
#380=CARTESIAN_POINT('Ctrl Pts',(31.4281829624662,21.3631205756295,74.3129441492849));
#381=CARTESIAN_POINT('Ctrl Pts',(31.3328900677866,21.5,72.8901354791257));
#382=CARTESIAN_POINT('Ctrl Pts',(31.3328900677866,21.5,71.5000000014067));
#383=CARTESIAN_POINT('Ctrl Pts',(38.,-5.13478148889135E-015,50.0000000017061));
#384=CARTESIAN_POINT('Ctrl Pts',(38.,1.38338658684792,50.0000000017061));
#385=CARTESIAN_POINT('Ctrl Pts',(37.9226891116301,2.80415318446631,50.1356763651779));
#386=CARTESIAN_POINT('Ctrl Pts',(37.6100200442527,5.6107055530775,50.695731624403));
#387=CARTESIAN_POINT('Ctrl Pts',(37.3748478887101,6.99655329445091,51.1199037912152));
#388=CARTESIAN_POINT('Ctrl Pts',(36.7825323969735,9.63723608633989,52.227642935734));
#389=CARTESIAN_POINT('Ctrl Pts',(36.4252070482425,10.8946981735949,52.9121013986799));
#390=CARTESIAN_POINT('Ctrl Pts',(35.6508600645498,13.2100845375657,54.4794803520173));
#391=CARTESIAN_POINT('Ctrl Pts',(35.2343749722043,14.268109184698,55.3625175952633));
#392=CARTESIAN_POINT('Ctrl Pts',(34.4163444163409,16.1420423014919,57.2364507120106));
#393=CARTESIAN_POINT('Ctrl Pts',(33.9839322197558,17.0257931556319,58.2967968699523));
#394=CARTESIAN_POINT('Ctrl Pts',(33.1533372430495,18.5914365103413,60.6114420741166));
#395=CARTESIAN_POINT('Ctrl Pts',(32.755873371611,19.2736120243975,61.8658075985274));
#396=CARTESIAN_POINT('Ctrl Pts',(32.0800968740814,20.3785879436471,64.4997991874325));
#397=CARTESIAN_POINT('Ctrl Pts',(31.8021822249205,20.802278963207,65.8821030447429));
#398=CARTESIAN_POINT('Ctrl Pts',(31.4281829624651,21.3631205756312,68.687055853548));
#399=CARTESIAN_POINT('Ctrl Pts',(31.3328900677866,21.5,70.1098645236975));
#400=CARTESIAN_POINT('Ctrl Pts',(31.3328900677866,21.5,71.5000000014067));
#401=CARTESIAN_POINT('Origin',(-4.44089209850063E-015,0.,19.));
#402=CARTESIAN_POINT('',(-31.5,-3.85751E-015,38.));
#403=CARTESIAN_POINT('Origin',(0.,0.,38.));
#404=CARTESIAN_POINT('',(-31.5,-3.85751E-015,0.));
#405=CARTESIAN_POINT('Origin',(0.,0.,0.));
#406=CARTESIAN_POINT('Origin',(0.,0.,71.5));
#407=CARTESIAN_POINT('',(55.4999999990347,-2.632904E-015,93.0000000024918));
#408=CARTESIAN_POINT('Origin',(55.5,0.,71.500000002492));
#409=CARTESIAN_POINT('Origin',(0.,0.,124.));
#410=CARTESIAN_POINT('',(-31.5,-3.85751E-015,143.));
#411=CARTESIAN_POINT('Origin',(0.,0.,143.));
#412=CARTESIAN_POINT('',(-31.5,-3.85751E-015,105.));
#413=CARTESIAN_POINT('Origin',(0.,0.,105.));
#414=CARTESIAN_POINT('Origin',(44.5,0.,71.5000000019979));
#415=CARTESIAN_POINT('',(55.4999999992817,-1.95937E-015,87.5000000024917));
#416=CARTESIAN_POINT('Origin',(55.5,0.,71.500000002492));
#417=CARTESIAN_POINT('',(33.4999999992817,-1.95937E-015,87.500000001504));
#418=CARTESIAN_POINT('Origin',(33.5,0.,71.500000001504));
#419=CARTESIAN_POINT('Origin',(0.,0.,0.));
#420=CARTESIAN_POINT('Origin',(0.,0.,38.));
#421=CARTESIAN_POINT('Origin',(0.,0.,143.));
#422=CARTESIAN_POINT('Origin',(55.5,0.,71.500000002492));
#423=CARTESIAN_POINT('Origin',(0.,0.,105.));
#424=CARTESIAN_POINT('Origin',(33.5,0.,71.500000001504));
#425=UNCERTAINTY_MEASURE_WITH_UNIT(LENGTH_MEASURE(0.01),#427,
'DISTANCE_ACCURACY_VALUE',
'Maximum model space distance between geometric entities at asserted c
onnectivities');
#426=(
GEOMETRIC_REPRESENTATION_CONTEXT(3)
GLOBAL_UNCERTAINTY_ASSIGNED_CONTEXT((#425))
GLOBAL_UNIT_ASSIGNED_CONTEXT((#427,#430,#428))
REPRESENTATION_CONTEXT('','3D')
);
#427=(
LENGTH_UNIT()
NAMED_UNIT(*)
SI_UNIT(.MILLI.,.METRE.)
);
#428=(
NAMED_UNIT(*)
SI_UNIT($,.STERADIAN.)
SOLID_ANGLE_UNIT()
);
#429=DIMENSIONAL_EXPONENTS(0.,0.,0.,0.,0.,0.,0.);
#430=(
CONVERSION_BASED_UNIT('degree',#432)
NAMED_UNIT(#429)
PLANE_ANGLE_UNIT()
);
#431=(
NAMED_UNIT(*)
PLANE_ANGLE_UNIT()
SI_UNIT($,.RADIAN.)
);
#432=PLANE_ANGLE_MEASURE_WITH_UNIT(PLANE_ANGLE_MEASURE(0.01745329252),#431);
#433=SHAPE_DEFINITION_REPRESENTATION(#434,#435);
#434=PRODUCT_DEFINITION_SHAPE('',$,#437);
#435=SHAPE_REPRESENTATION('',(#182),#426);
#436=PRODUCT_DEFINITION_CONTEXT('3D Mechanical Parts',#440,'design');
#437=PRODUCT_DEFINITION('TRIV063032','TRIV063032',#438,#436);
#438=PRODUCT_DEFINITION_FORMATION('',$,#442);
#439=APPLICATION_PROTOCOL_DEFINITION('international standard',
'automotive_design',2009,#440);
#440=APPLICATION_CONTEXT(
'Core Data for Automotive Mechanical Design Process');
#441=PRODUCT_CONTEXT('3D Mechanical Parts',#440,'mechanical');
#442=PRODUCT('TRIV063032','TRIV063032',$,(#441));
#443=PRESENTATION_STYLE_ASSIGNMENT((#444));
#444=SURFACE_STYLE_USAGE(.BOTH.,#445);
#445=SURFACE_SIDE_STYLE($,(#446));
#446=SURFACE_STYLE_FILL_AREA(#447);
#447=FILL_AREA_STYLE($,(#448));
#448=FILL_AREA_STYLE_COLOUR($,#449);
#449=COLOUR_RGB('',0.509803921568627,0.509803921568627,0.588235294117647);
ENDSEC;
END-ISO-10303-21;
