ISO-10303-21;
HEADER;
/* Generated by software containing ST-Developer
 * from STEP Tools, Inc. (www.steptools.com) 
 */

FILE_DESCRIPTION(
/* description */ (''),
/* implementation_level */ '2;1');

FILE_NAME(
/* name */ 
'Q:\\Ric010\\FF7\\FIPlastiCAD\\FIP\\Lavoro\\PVC Fittings\\PVC Fittings
 STEP\\PFV\\PFV400.ipt.stp',
/* time_stamp */ '2013-10-01T14:50:45+02:00',
/* author */ ('bfaro'),
/* organization */ (''),
/* preprocessor_version */ 'ST-DEVELOPER v15.2',
/* originating_system */ 'Autodesk Inventor 2014',
/* authorisation */ '');

FILE_SCHEMA (('AUTOMOTIVE_DESIGN { 1 0 10303 214 3 1 1 }'));
ENDSEC;

DATA;
#10=SHAPE_REPRESENTATION_RELATIONSHIP('SRR','None',#534,#11);
#11=ADVANCED_BREP_SHAPE_REPRESENTATION($,(#310),#525);
#12=LINE($,#476,#36);
#13=LINE($,#477,#37);
#14=LINE($,#480,#38);
#15=LINE($,#481,#39);
#16=LINE($,#484,#40);
#17=LINE($,#485,#41);
#18=LINE($,#488,#42);
#19=LINE($,#489,#43);
#20=LINE($,#492,#44);
#21=LINE($,#493,#45);
#22=LINE($,#496,#46);
#23=LINE($,#497,#47);
#24=LINE($,#501,#48);
#25=LINE($,#503,#49);
#26=LINE($,#505,#50);
#27=LINE($,#507,#51);
#28=LINE($,#509,#52);
#29=LINE($,#510,#53);
#30=LINE($,#512,#54);
#31=LINE($,#513,#55);
#32=LINE($,#515,#56);
#33=LINE($,#517,#57);
#34=LINE($,#519,#58);
#35=LINE($,#521,#59);
#36=VECTOR($,#390,34.063665882188);
#37=VECTOR($,#391,34.0636658821879);
#38=VECTOR($,#394,34.063665882188);
#39=VECTOR($,#395,34.0636658821879);
#40=VECTOR($,#398,34.0636658821879);
#41=VECTOR($,#399,34.0636658821879);
#42=VECTOR($,#402,34.0636658821879);
#43=VECTOR($,#403,34.0636658821879);
#44=VECTOR($,#406,34.0636658821879);
#45=VECTOR($,#407,34.063665882188);
#46=VECTOR($,#410,34.0636658821879);
#47=VECTOR($,#411,34.0636658821879);
#48=VECTOR($,#414,68.1273317643758);
#49=VECTOR($,#415,68.1273317643758);
#50=VECTOR($,#416,68.1273317643758);
#51=VECTOR($,#417,68.1273317643759);
#52=VECTOR($,#418,68.1273317643758);
#53=VECTOR($,#419,68.1273317643758);
#54=VECTOR($,#422,15.);
#55=VECTOR($,#423,15.);
#56=VECTOR($,#426,15.);
#57=VECTOR($,#429,15.);
#58=VECTOR($,#432,15.);
#59=VECTOR($,#435,15.);
#60=SPHERICAL_SURFACE($,#325,177.578125);
#61=PLANE($,#323);
#62=PLANE($,#324);
#63=PLANE($,#332);
#64=PLANE($,#333);
#65=PLANE($,#334);
#66=PLANE($,#335);
#67=PLANE($,#336);
#68=PLANE($,#337);
#69=PLANE($,#338);
#70=PLANE($,#339);
#71=PLANE($,#340);
#72=PLANE($,#341);
#73=PLANE($,#342);
#74=PLANE($,#343);
#75=PLANE($,#344);
#76=PLANE($,#345);
#77=TOROIDAL_SURFACE($,#321,43.9999999999995,1.99999999999928);
#78=STYLED_ITEM($,(#543),#289);
#79=STYLED_ITEM($,(#542),#310);
#80=FACE_BOUND($,#109,.T.);
#81=FACE_BOUND($,#111,.T.);
#82=FACE_BOUND($,#113,.T.);
#83=FACE_BOUND($,#115,.T.);
#84=FACE_BOUND($,#117,.T.);
#85=FACE_BOUND($,#119,.T.);
#86=FACE_BOUND($,#128,.T.);
#87=FACE_OUTER_BOUND($,#108,.T.);
#88=FACE_OUTER_BOUND($,#110,.T.);
#89=FACE_OUTER_BOUND($,#112,.T.);
#90=FACE_OUTER_BOUND($,#114,.T.);
#91=FACE_OUTER_BOUND($,#116,.T.);
#92=FACE_OUTER_BOUND($,#118,.T.);
#93=FACE_OUTER_BOUND($,#120,.T.);
#94=FACE_OUTER_BOUND($,#121,.T.);
#95=FACE_OUTER_BOUND($,#122,.T.);
#96=FACE_OUTER_BOUND($,#123,.T.);
#97=FACE_OUTER_BOUND($,#124,.T.);
#98=FACE_OUTER_BOUND($,#125,.T.);
#99=FACE_OUTER_BOUND($,#126,.T.);
#100=FACE_OUTER_BOUND($,#127,.T.);
#101=FACE_OUTER_BOUND($,#129,.T.);
#102=FACE_OUTER_BOUND($,#130,.T.);
#103=FACE_OUTER_BOUND($,#131,.T.);
#104=FACE_OUTER_BOUND($,#132,.T.);
#105=FACE_OUTER_BOUND($,#133,.T.);
#106=FACE_OUTER_BOUND($,#134,.T.);
#107=FACE_OUTER_BOUND($,#135,.T.);
#108=EDGE_LOOP($,(#211));
#109=EDGE_LOOP($,(#212));
#110=EDGE_LOOP($,(#213));
#111=EDGE_LOOP($,(#214));
#112=EDGE_LOOP($,(#215));
#113=EDGE_LOOP($,(#216));
#114=EDGE_LOOP($,(#217));
#115=EDGE_LOOP($,(#218));
#116=EDGE_LOOP($,(#219));
#117=EDGE_LOOP($,(#220));
#118=EDGE_LOOP($,(#221));
#119=EDGE_LOOP($,(#222));
#120=EDGE_LOOP($,(#223,#224,#225,#226,#227,#228));
#121=EDGE_LOOP($,(#229,#230,#231));
#122=EDGE_LOOP($,(#232,#233,#234));
#123=EDGE_LOOP($,(#235,#236,#237));
#124=EDGE_LOOP($,(#238,#239,#240));
#125=EDGE_LOOP($,(#241,#242,#243));
#126=EDGE_LOOP($,(#244,#245,#246));
#127=EDGE_LOOP($,(#247,#248,#249,#250,#251,#252));
#128=EDGE_LOOP($,(#253));
#129=EDGE_LOOP($,(#254,#255,#256,#257,#258));
#130=EDGE_LOOP($,(#259,#260,#261,#262,#263));
#131=EDGE_LOOP($,(#264,#265,#266,#267,#268));
#132=EDGE_LOOP($,(#269,#270,#271,#272,#273));
#133=EDGE_LOOP($,(#274,#275,#276,#277,#278));
#134=EDGE_LOOP($,(#279,#280,#281,#282,#283));
#135=EDGE_LOOP($,(#284));
#136=CIRCLE($,#313,58.5);
#137=CIRCLE($,#314,58.5);
#138=CIRCLE($,#316,56.5);
#139=CIRCLE($,#317,56.5);
#140=CIRCLE($,#319,46.);
#141=CIRCLE($,#320,46.);
#142=CIRCLE($,#322,45.4252356480617);
#143=CIRCLE($,#326,59.);
#144=CIRCLE($,#327,59.);
#145=CIRCLE($,#328,59.);
#146=CIRCLE($,#329,59.);
#147=CIRCLE($,#330,59.);
#148=CIRCLE($,#331,59.);
#149=VERTEX_POINT($,#442);
#150=VERTEX_POINT($,#444);
#151=VERTEX_POINT($,#447);
#152=VERTEX_POINT($,#449);
#153=VERTEX_POINT($,#452);
#154=VERTEX_POINT($,#454);
#155=VERTEX_POINT($,#457);
#156=VERTEX_POINT($,#462);
#157=VERTEX_POINT($,#463);
#158=VERTEX_POINT($,#465);
#159=VERTEX_POINT($,#467);
#160=VERTEX_POINT($,#469);
#161=VERTEX_POINT($,#471);
#162=VERTEX_POINT($,#475);
#163=VERTEX_POINT($,#479);
#164=VERTEX_POINT($,#483);
#165=VERTEX_POINT($,#487);
#166=VERTEX_POINT($,#491);
#167=VERTEX_POINT($,#495);
#168=VERTEX_POINT($,#499);
#169=VERTEX_POINT($,#500);
#170=VERTEX_POINT($,#502);
#171=VERTEX_POINT($,#504);
#172=VERTEX_POINT($,#506);
#173=VERTEX_POINT($,#508);
#174=EDGE_CURVE($,#149,#149,#136,.T.);
#175=EDGE_CURVE($,#150,#150,#137,.T.);
#176=EDGE_CURVE($,#151,#151,#138,.T.);
#177=EDGE_CURVE($,#152,#152,#139,.T.);
#178=EDGE_CURVE($,#153,#153,#140,.T.);
#179=EDGE_CURVE($,#154,#154,#141,.T.);
#180=EDGE_CURVE($,#155,#155,#142,.T.);
#181=EDGE_CURVE($,#156,#157,#143,.T.);
#182=EDGE_CURVE($,#158,#156,#144,.T.);
#183=EDGE_CURVE($,#159,#158,#145,.T.);
#184=EDGE_CURVE($,#160,#159,#146,.T.);
#185=EDGE_CURVE($,#161,#160,#147,.T.);
#186=EDGE_CURVE($,#157,#161,#148,.T.);
#187=EDGE_CURVE($,#162,#161,#12,.T.);
#188=EDGE_CURVE($,#157,#162,#13,.T.);
#189=EDGE_CURVE($,#163,#160,#14,.T.);
#190=EDGE_CURVE($,#161,#163,#15,.T.);
#191=EDGE_CURVE($,#164,#159,#16,.T.);
#192=EDGE_CURVE($,#160,#164,#17,.T.);
#193=EDGE_CURVE($,#165,#158,#18,.T.);
#194=EDGE_CURVE($,#159,#165,#19,.T.);
#195=EDGE_CURVE($,#166,#156,#20,.T.);
#196=EDGE_CURVE($,#158,#166,#21,.T.);
#197=EDGE_CURVE($,#167,#157,#22,.T.);
#198=EDGE_CURVE($,#156,#167,#23,.T.);
#199=EDGE_CURVE($,#168,#169,#24,.T.);
#200=EDGE_CURVE($,#170,#168,#25,.T.);
#201=EDGE_CURVE($,#171,#170,#26,.T.);
#202=EDGE_CURVE($,#172,#171,#27,.T.);
#203=EDGE_CURVE($,#173,#172,#28,.T.);
#204=EDGE_CURVE($,#169,#173,#29,.T.);
#205=EDGE_CURVE($,#172,#163,#30,.T.);
#206=EDGE_CURVE($,#171,#162,#31,.T.);
#207=EDGE_CURVE($,#173,#164,#32,.T.);
#208=EDGE_CURVE($,#169,#165,#33,.T.);
#209=EDGE_CURVE($,#168,#166,#34,.T.);
#210=EDGE_CURVE($,#170,#167,#35,.T.);
#211=ORIENTED_EDGE($,*,*,#174,.T.);
#212=ORIENTED_EDGE($,*,*,#175,.T.);
#213=ORIENTED_EDGE($,*,*,#176,.T.);
#214=ORIENTED_EDGE($,*,*,#177,.T.);
#215=ORIENTED_EDGE($,*,*,#178,.F.);
#216=ORIENTED_EDGE($,*,*,#179,.T.);
#217=ORIENTED_EDGE($,*,*,#179,.F.);
#218=ORIENTED_EDGE($,*,*,#180,.F.);
#219=ORIENTED_EDGE($,*,*,#174,.F.);
#220=ORIENTED_EDGE($,*,*,#177,.F.);
#221=ORIENTED_EDGE($,*,*,#176,.F.);
#222=ORIENTED_EDGE($,*,*,#178,.T.);
#223=ORIENTED_EDGE($,*,*,#181,.F.);
#224=ORIENTED_EDGE($,*,*,#182,.F.);
#225=ORIENTED_EDGE($,*,*,#183,.F.);
#226=ORIENTED_EDGE($,*,*,#184,.F.);
#227=ORIENTED_EDGE($,*,*,#185,.F.);
#228=ORIENTED_EDGE($,*,*,#186,.F.);
#229=ORIENTED_EDGE($,*,*,#186,.T.);
#230=ORIENTED_EDGE($,*,*,#187,.F.);
#231=ORIENTED_EDGE($,*,*,#188,.F.);
#232=ORIENTED_EDGE($,*,*,#185,.T.);
#233=ORIENTED_EDGE($,*,*,#189,.F.);
#234=ORIENTED_EDGE($,*,*,#190,.F.);
#235=ORIENTED_EDGE($,*,*,#184,.T.);
#236=ORIENTED_EDGE($,*,*,#191,.F.);
#237=ORIENTED_EDGE($,*,*,#192,.F.);
#238=ORIENTED_EDGE($,*,*,#183,.T.);
#239=ORIENTED_EDGE($,*,*,#193,.F.);
#240=ORIENTED_EDGE($,*,*,#194,.F.);
#241=ORIENTED_EDGE($,*,*,#182,.T.);
#242=ORIENTED_EDGE($,*,*,#195,.F.);
#243=ORIENTED_EDGE($,*,*,#196,.F.);
#244=ORIENTED_EDGE($,*,*,#181,.T.);
#245=ORIENTED_EDGE($,*,*,#197,.F.);
#246=ORIENTED_EDGE($,*,*,#198,.F.);
#247=ORIENTED_EDGE($,*,*,#199,.F.);
#248=ORIENTED_EDGE($,*,*,#200,.F.);
#249=ORIENTED_EDGE($,*,*,#201,.F.);
#250=ORIENTED_EDGE($,*,*,#202,.F.);
#251=ORIENTED_EDGE($,*,*,#203,.F.);
#252=ORIENTED_EDGE($,*,*,#204,.F.);
#253=ORIENTED_EDGE($,*,*,#175,.F.);
#254=ORIENTED_EDGE($,*,*,#190,.T.);
#255=ORIENTED_EDGE($,*,*,#205,.F.);
#256=ORIENTED_EDGE($,*,*,#202,.T.);
#257=ORIENTED_EDGE($,*,*,#206,.T.);
#258=ORIENTED_EDGE($,*,*,#187,.T.);
#259=ORIENTED_EDGE($,*,*,#192,.T.);
#260=ORIENTED_EDGE($,*,*,#207,.F.);
#261=ORIENTED_EDGE($,*,*,#203,.T.);
#262=ORIENTED_EDGE($,*,*,#205,.T.);
#263=ORIENTED_EDGE($,*,*,#189,.T.);
#264=ORIENTED_EDGE($,*,*,#194,.T.);
#265=ORIENTED_EDGE($,*,*,#208,.F.);
#266=ORIENTED_EDGE($,*,*,#204,.T.);
#267=ORIENTED_EDGE($,*,*,#207,.T.);
#268=ORIENTED_EDGE($,*,*,#191,.T.);
#269=ORIENTED_EDGE($,*,*,#196,.T.);
#270=ORIENTED_EDGE($,*,*,#209,.F.);
#271=ORIENTED_EDGE($,*,*,#199,.T.);
#272=ORIENTED_EDGE($,*,*,#208,.T.);
#273=ORIENTED_EDGE($,*,*,#193,.T.);
#274=ORIENTED_EDGE($,*,*,#198,.T.);
#275=ORIENTED_EDGE($,*,*,#210,.F.);
#276=ORIENTED_EDGE($,*,*,#200,.T.);
#277=ORIENTED_EDGE($,*,*,#209,.T.);
#278=ORIENTED_EDGE($,*,*,#195,.T.);
#279=ORIENTED_EDGE($,*,*,#188,.T.);
#280=ORIENTED_EDGE($,*,*,#206,.F.);
#281=ORIENTED_EDGE($,*,*,#201,.T.);
#282=ORIENTED_EDGE($,*,*,#210,.T.);
#283=ORIENTED_EDGE($,*,*,#197,.T.);
#284=ORIENTED_EDGE($,*,*,#180,.T.);
#285=CYLINDRICAL_SURFACE($,#312,58.5);
#286=CYLINDRICAL_SURFACE($,#315,56.5);
#287=CYLINDRICAL_SURFACE($,#318,46.);
#288=ADVANCED_FACE($,(#87,#80),#285,.T.);
#289=ADVANCED_FACE($,(#88,#81),#286,.T.);
#290=ADVANCED_FACE($,(#89,#82),#287,.F.);
#291=ADVANCED_FACE($,(#90,#83),#77,.F.);
#292=ADVANCED_FACE($,(#91,#84),#61,.F.);
#293=ADVANCED_FACE($,(#92,#85),#62,.T.);
#294=ADVANCED_FACE($,(#93),#60,.T.);
#295=ADVANCED_FACE($,(#94),#63,.T.);
#296=ADVANCED_FACE($,(#95),#64,.T.);
#297=ADVANCED_FACE($,(#96),#65,.T.);
#298=ADVANCED_FACE($,(#97),#66,.T.);
#299=ADVANCED_FACE($,(#98),#67,.T.);
#300=ADVANCED_FACE($,(#99),#68,.T.);
#301=ADVANCED_FACE($,(#100,#86),#69,.F.);
#302=ADVANCED_FACE($,(#101),#70,.T.);
#303=ADVANCED_FACE($,(#102),#71,.T.);
#304=ADVANCED_FACE($,(#103),#72,.T.);
#305=ADVANCED_FACE($,(#104),#73,.T.);
#306=ADVANCED_FACE($,(#105),#74,.T.);
#307=ADVANCED_FACE($,(#106),#75,.T.);
#308=ADVANCED_FACE($,(#107),#76,.F.);
#309=CLOSED_SHELL($,(#288,#289,#290,#291,#292,#293,#294,#295,#296,#297,
#298,#299,#300,#301,#302,#303,#304,#305,#306,#307,#308));
#310=MANIFOLD_SOLID_BREP('1108',#309);
#311=AXIS2_PLACEMENT_3D('placement',#440,#346,#347);
#312=AXIS2_PLACEMENT_3D($,#441,#348,#349);
#313=AXIS2_PLACEMENT_3D($,#443,#350,#351);
#314=AXIS2_PLACEMENT_3D($,#445,#352,#353);
#315=AXIS2_PLACEMENT_3D($,#446,#354,#355);
#316=AXIS2_PLACEMENT_3D($,#448,#356,#357);
#317=AXIS2_PLACEMENT_3D($,#450,#358,#359);
#318=AXIS2_PLACEMENT_3D($,#451,#360,#361);
#319=AXIS2_PLACEMENT_3D($,#453,#362,#363);
#320=AXIS2_PLACEMENT_3D($,#455,#364,#365);
#321=AXIS2_PLACEMENT_3D($,#456,#366,#367);
#322=AXIS2_PLACEMENT_3D($,#458,#368,#369);
#323=AXIS2_PLACEMENT_3D($,#459,#370,#371);
#324=AXIS2_PLACEMENT_3D($,#460,#372,#373);
#325=AXIS2_PLACEMENT_3D($,#461,#374,#375);
#326=AXIS2_PLACEMENT_3D($,#464,#376,#377);
#327=AXIS2_PLACEMENT_3D($,#466,#378,#379);
#328=AXIS2_PLACEMENT_3D($,#468,#380,#381);
#329=AXIS2_PLACEMENT_3D($,#470,#382,#383);
#330=AXIS2_PLACEMENT_3D($,#472,#384,#385);
#331=AXIS2_PLACEMENT_3D($,#473,#386,#387);
#332=AXIS2_PLACEMENT_3D($,#474,#388,#389);
#333=AXIS2_PLACEMENT_3D($,#478,#392,#393);
#334=AXIS2_PLACEMENT_3D($,#482,#396,#397);
#335=AXIS2_PLACEMENT_3D($,#486,#400,#401);
#336=AXIS2_PLACEMENT_3D($,#490,#404,#405);
#337=AXIS2_PLACEMENT_3D($,#494,#408,#409);
#338=AXIS2_PLACEMENT_3D($,#498,#412,#413);
#339=AXIS2_PLACEMENT_3D($,#511,#420,#421);
#340=AXIS2_PLACEMENT_3D($,#514,#424,#425);
#341=AXIS2_PLACEMENT_3D($,#516,#427,#428);
#342=AXIS2_PLACEMENT_3D($,#518,#430,#431);
#343=AXIS2_PLACEMENT_3D($,#520,#433,#434);
#344=AXIS2_PLACEMENT_3D($,#522,#436,#437);
#345=AXIS2_PLACEMENT_3D($,#523,#438,#439);
#346=DIRECTION('axis',(0.,0.,1.));
#347=DIRECTION('refdir',(1.,0.,0.));
#348=DIRECTION('center_axis',(1.,-1.83691E-016,0.));
#349=DIRECTION('ref_axis',(-1.83691E-016,-1.,0.));
#350=DIRECTION('center_axis',(1.,0.,0.));
#351=DIRECTION('ref_axis',(0.,-1.,0.));
#352=DIRECTION('center_axis',(-1.,0.,0.));
#353=DIRECTION('ref_axis',(0.,1.,0.));
#354=DIRECTION('center_axis',(1.,-1.83691E-016,0.));
#355=DIRECTION('ref_axis',(-1.83691E-016,-1.,0.));
#356=DIRECTION('center_axis',(1.,0.,0.));
#357=DIRECTION('ref_axis',(0.,-1.,0.));
#358=DIRECTION('center_axis',(-1.,0.,0.));
#359=DIRECTION('ref_axis',(0.,1.,0.));
#360=DIRECTION('center_axis',(1.,-1.83691E-016,0.));
#361=DIRECTION('ref_axis',(-1.83691E-016,-1.,0.));
#362=DIRECTION('center_axis',(1.,0.,0.));
#363=DIRECTION('ref_axis',(0.,-1.,0.));
#364=DIRECTION('center_axis',(1.,0.,0.));
#365=DIRECTION('ref_axis',(0.,-1.,0.));
#366=DIRECTION('center_axis',(1.,-6.19301437121928E-016,-1.58572251353076E-014));
#367=DIRECTION('ref_axis',(-1.575551283642E-014,0.,-1.));
#368=DIRECTION('center_axis',(-1.,0.,0.));
#369=DIRECTION('ref_axis',(0.,0.,-1.));
#370=DIRECTION('center_axis',(1.,0.,0.));
#371=DIRECTION('ref_axis',(0.,0.,-1.));
#372=DIRECTION('center_axis',(-1.,0.,0.));
#373=DIRECTION('ref_axis',(0.,0.,-1.));
#374=DIRECTION('center_axis',(0.,-6.12323399573677E-017,1.));
#375=DIRECTION('ref_axis',(0.,-1.,0.));
#376=DIRECTION('center_axis',(-1.,0.,0.));
#377=DIRECTION('ref_axis',(0.,-1.,0.));
#378=DIRECTION('center_axis',(-1.,0.,0.));
#379=DIRECTION('ref_axis',(0.,-1.,0.));
#380=DIRECTION('center_axis',(-1.,0.,0.));
#381=DIRECTION('ref_axis',(0.,-1.,0.));
#382=DIRECTION('center_axis',(-1.,0.,0.));
#383=DIRECTION('ref_axis',(0.,-1.,0.));
#384=DIRECTION('center_axis',(-1.,0.,0.));
#385=DIRECTION('ref_axis',(0.,-1.,0.));
#386=DIRECTION('center_axis',(-1.,0.,0.));
#387=DIRECTION('ref_axis',(0.,-1.,0.));
#388=DIRECTION('center_axis',(1.,0.,0.));
#389=DIRECTION('ref_axis',(0.,0.,-1.));
#390=DIRECTION($,(0.,1.,0.));
#391=DIRECTION($,(0.,0.5,0.866025403784439));
#392=DIRECTION('center_axis',(1.,0.,0.));
#393=DIRECTION('ref_axis',(0.,0.,-1.));
#394=DIRECTION($,(0.,0.499999999999998,-0.86602540378444));
#395=DIRECTION($,(0.,1.,0.));
#396=DIRECTION('center_axis',(1.,0.,0.));
#397=DIRECTION('ref_axis',(0.,0.,-1.));
#398=DIRECTION($,(0.,-0.500000000000001,-0.866025403784438));
#399=DIRECTION($,(0.,0.499999999999999,-0.866025403784439));
#400=DIRECTION('center_axis',(1.,0.,0.));
#401=DIRECTION('ref_axis',(0.,0.,-1.));
#402=DIRECTION($,(0.,-1.,0.));
#403=DIRECTION($,(0.,-0.500000000000001,-0.866025403784438));
#404=DIRECTION('center_axis',(1.,0.,0.));
#405=DIRECTION('ref_axis',(0.,0.,-1.));
#406=DIRECTION($,(0.,-0.5,0.866025403784439));
#407=DIRECTION($,(0.,-1.,0.));
#408=DIRECTION('center_axis',(1.,0.,0.));
#409=DIRECTION('ref_axis',(0.,0.,-1.));
#410=DIRECTION($,(0.,0.5,0.866025403784439));
#411=DIRECTION($,(0.,-0.499999999999999,0.866025403784439));
#412=DIRECTION('center_axis',(1.,0.,0.));
#413=DIRECTION('ref_axis',(0.,0.,-1.));
#414=DIRECTION($,(0.,1.,0.));
#415=DIRECTION($,(0.,0.5,-0.866025403784439));
#416=DIRECTION($,(0.,-0.5,-0.866025403784439));
#417=DIRECTION($,(0.,-1.,0.));
#418=DIRECTION($,(0.,-0.499999999999999,0.866025403784439));
#419=DIRECTION($,(0.,0.500000000000001,0.866025403784438));
#420=DIRECTION('center_axis',(0.,0.,1.));
#421=DIRECTION('ref_axis',(1.,0.,0.));
#422=DIRECTION($,(1.,0.,0.));
#423=DIRECTION($,(1.,0.,0.));
#424=DIRECTION('center_axis',(0.,0.866025403784439,0.499999999999999));
#425=DIRECTION('ref_axis',(0.,-0.499999999999999,0.866025403784439));
#426=DIRECTION($,(1.,0.,0.));
#427=DIRECTION('center_axis',(0.,0.866025403784438,-0.500000000000001));
#428=DIRECTION('ref_axis',(-1.,0.,0.));
#429=DIRECTION($,(1.,0.,0.));
#430=DIRECTION('center_axis',(0.,0.,-1.));
#431=DIRECTION('ref_axis',(-1.,0.,0.));
#432=DIRECTION($,(1.,0.,0.));
#433=DIRECTION('center_axis',(0.,-0.866025403784439,-0.5));
#434=DIRECTION('ref_axis',(0.,0.499999999999999,-0.866025403784439));
#435=DIRECTION($,(1.,0.,0.));
#436=DIRECTION('center_axis',(0.,-0.866025403784439,0.5));
#437=DIRECTION('ref_axis',(1.,0.,0.));
#438=DIRECTION('center_axis',(1.,0.,0.));
#439=DIRECTION('ref_axis',(0.,0.,-1.));
#440=CARTESIAN_POINT('',(0.,0.,0.));
#441=CARTESIAN_POINT('Origin',(48.300502755229,0.,0.));
#442=CARTESIAN_POINT('',(39.3,58.5,7.163947E-015));
#443=CARTESIAN_POINT('Origin',(39.3,1.653311E-015,0.));
#444=CARTESIAN_POINT('',(61.9121448025042,58.5,0.));
#445=CARTESIAN_POINT('Origin',(61.9121448025041,-7.581801E-015,0.));
#446=CARTESIAN_POINT('Origin',(18.65,0.,0.));
#447=CARTESIAN_POINT('',(1.065814E-014,56.5,6.919026E-015));
#448=CARTESIAN_POINT('Origin',(0.,0.,0.));
#449=CARTESIAN_POINT('',(39.3,56.5,0.));
#450=CARTESIAN_POINT('Origin',(39.3,-4.812703E-015,0.));
#451=CARTESIAN_POINT('Origin',(30.2545199535524,0.,0.));
#452=CARTESIAN_POINT('',(7.105427E-015,46.,5.633189E-015));
#453=CARTESIAN_POINT('Origin',(0.,0.,0.));
#454=CARTESIAN_POINT('',(60.5090399071046,5.633189E-015,-46.));
#455=CARTESIAN_POINT('Origin',(60.5090399071046,0.,0.));
#456=CARTESIAN_POINT('Origin',(60.5090399071054,-4.82322515260591E-013,
-1.7608137170555E-012));
#457=CARTESIAN_POINT('',(61.9121448025042,5.305066E-015,-45.4252356480617));
#458=CARTESIAN_POINT('Origin',(61.9121448025042,1.218569E-031,-1.827853E-033));
#459=CARTESIAN_POINT('Origin',(39.3,61.4475518761147,0.));
#460=CARTESIAN_POINT('Origin',(0.,-51.25,0.));
#461=CARTESIAN_POINT('Origin',(-90.5781250000003,0.,0.));
#462=CARTESIAN_POINT('',(76.9121448025041,-51.0954988232819,-29.5));
#463=CARTESIAN_POINT('',(76.9121448025041,-51.0954988232819,29.5));
#464=CARTESIAN_POINT('Origin',(76.9121448025041,-1.61375E-015,0.));
#465=CARTESIAN_POINT('',(76.9121448025041,-3.552714E-014,-59.));
#466=CARTESIAN_POINT('Origin',(76.9121448025041,-1.61375E-015,0.));
#467=CARTESIAN_POINT('',(76.9121448025041,51.0954988232818,-29.5));
#468=CARTESIAN_POINT('Origin',(76.9121448025041,-1.61375E-015,0.));
#469=CARTESIAN_POINT('',(76.9121448025041,51.0954988232819,29.4999999999999));
#470=CARTESIAN_POINT('Origin',(76.9121448025041,-1.61375E-015,0.));
#471=CARTESIAN_POINT('',(76.9121448025041,4.973799E-014,59.));
#472=CARTESIAN_POINT('Origin',(76.9121448025041,-1.61375E-015,0.));
#473=CARTESIAN_POINT('Origin',(76.9121448025041,-1.61375E-015,0.));
#474=CARTESIAN_POINT('Origin',(76.9121448025041,-2.842171E-014,2.303276E-014));
#475=CARTESIAN_POINT('',(76.9121448025041,-34.0636658821879,59.));
#476=CARTESIAN_POINT($,(76.9121448025041,-34.0636658821879,59.));
#477=CARTESIAN_POINT($,(76.9121448025041,-51.0954988232819,29.5));
#478=CARTESIAN_POINT('Origin',(76.9121448025041,-2.842171E-014,2.303276E-014));
#479=CARTESIAN_POINT('',(76.9121448025041,34.063665882188,59.));
#480=CARTESIAN_POINT($,(76.9121448025041,34.063665882188,59.));
#481=CARTESIAN_POINT($,(76.9121448025041,4.973799E-014,59.));
#482=CARTESIAN_POINT('Origin',(76.9121448025041,-2.842171E-014,2.303276E-014));
#483=CARTESIAN_POINT('',(76.9121448025041,68.1273317643758,-5.428204E-014));
#484=CARTESIAN_POINT($,(76.9121448025041,68.1273317643758,-5.428204E-014));
#485=CARTESIAN_POINT($,(76.9121448025041,51.0954988232819,29.4999999999999));
#486=CARTESIAN_POINT('Origin',(76.9121448025041,-2.842171E-014,2.303276E-014));
#487=CARTESIAN_POINT('',(76.9121448025041,34.0636658821878,-59.));
#488=CARTESIAN_POINT($,(76.9121448025041,34.0636658821878,-59.));
#489=CARTESIAN_POINT($,(76.9121448025041,51.0954988232818,-29.5));
#490=CARTESIAN_POINT('Origin',(76.9121448025041,-2.842171E-014,2.303276E-014));
#491=CARTESIAN_POINT('',(76.9121448025041,-34.063665882188,-59.));
#492=CARTESIAN_POINT($,(76.9121448025041,-34.063665882188,-59.));
#493=CARTESIAN_POINT($,(76.9121448025041,-3.552714E-014,-59.));
#494=CARTESIAN_POINT('Origin',(76.9121448025041,-2.842171E-014,2.303276E-014));
#495=CARTESIAN_POINT('',(76.9121448025041,-68.1273317643759,3.125593E-014));
#496=CARTESIAN_POINT($,(76.9121448025041,-68.1273317643759,3.125593E-014));
#497=CARTESIAN_POINT($,(76.9121448025041,-51.0954988232819,-29.5));
#498=CARTESIAN_POINT('Origin',(61.9121448025042,-2.842171E-014,2.303276E-014));
#499=CARTESIAN_POINT('',(61.9121448025042,-34.063665882188,-59.));
#500=CARTESIAN_POINT('',(61.9121448025042,34.0636658821878,-59.));
#501=CARTESIAN_POINT($,(61.9121448025042,-34.063665882188,-59.));
#502=CARTESIAN_POINT('',(61.9121448025042,-68.1273317643759,3.125593E-014));
#503=CARTESIAN_POINT($,(61.9121448025042,-68.1273317643759,3.125593E-014));
#504=CARTESIAN_POINT('',(61.9121448025042,-34.0636658821879,59.));
#505=CARTESIAN_POINT($,(61.9121448025042,-34.0636658821879,59.));
#506=CARTESIAN_POINT('',(61.9121448025042,34.063665882188,59.));
#507=CARTESIAN_POINT($,(61.9121448025042,34.063665882188,59.));
#508=CARTESIAN_POINT('',(61.9121448025042,68.1273317643758,-5.428204E-014));
#509=CARTESIAN_POINT($,(61.9121448025042,68.1273317643758,-5.428204E-014));
#510=CARTESIAN_POINT($,(61.9121448025042,34.0636658821878,-59.));
#511=CARTESIAN_POINT('Origin',(61.9121448025042,-34.0636658821879,59.));
#512=CARTESIAN_POINT($,(61.9121448025042,34.063665882188,59.));
#513=CARTESIAN_POINT($,(61.9121448025042,-34.0636658821879,59.));
#514=CARTESIAN_POINT('Origin',(61.9121448025042,34.063665882188,59.));
#515=CARTESIAN_POINT($,(61.9121448025042,68.1273317643758,-5.428204E-014));
#516=CARTESIAN_POINT('Origin',(61.9121448025042,68.1273317643758,-5.428204E-014));
#517=CARTESIAN_POINT($,(61.9121448025042,34.0636658821878,-59.));
#518=CARTESIAN_POINT('Origin',(61.9121448025042,34.0636658821878,-59.));
#519=CARTESIAN_POINT($,(61.9121448025042,-34.063665882188,-59.));
#520=CARTESIAN_POINT('Origin',(61.9121448025042,-34.063665882188,-59.));
#521=CARTESIAN_POINT($,(61.9121448025042,-68.1273317643759,3.125593E-014));
#522=CARTESIAN_POINT('Origin',(61.9121448025042,-68.1273317643759,3.125593E-014));
#523=CARTESIAN_POINT('Origin',(61.9121448025042,-2.842171E-014,2.303276E-014));
#524=UNCERTAINTY_MEASURE_WITH_UNIT(LENGTH_MEASURE(0.01),#526,
'DISTANCE_ACCURACY_VALUE',
'Maximum model space distance between geometric entities at asserted c
onnectivities');
#525=(
GEOMETRIC_REPRESENTATION_CONTEXT(3)
GLOBAL_UNCERTAINTY_ASSIGNED_CONTEXT((#524))
GLOBAL_UNIT_ASSIGNED_CONTEXT((#526,#529,#527))
REPRESENTATION_CONTEXT('','3D')
);
#526=(
LENGTH_UNIT()
NAMED_UNIT(*)
SI_UNIT(.MILLI.,.METRE.)
);
#527=(
NAMED_UNIT(*)
SI_UNIT($,.STERADIAN.)
SOLID_ANGLE_UNIT()
);
#528=DIMENSIONAL_EXPONENTS(0.,0.,0.,0.,0.,0.,0.);
#529=(
CONVERSION_BASED_UNIT('degree',#531)
NAMED_UNIT(#528)
PLANE_ANGLE_UNIT()
);
#530=(
NAMED_UNIT(*)
PLANE_ANGLE_UNIT()
SI_UNIT($,.RADIAN.)
);
#531=PLANE_ANGLE_MEASURE_WITH_UNIT(PLANE_ANGLE_MEASURE(0.01745329252),#530);
#532=SHAPE_DEFINITION_REPRESENTATION(#533,#534);
#533=PRODUCT_DEFINITION_SHAPE('',$,#536);
#534=SHAPE_REPRESENTATION('',(#311),#525);
#535=PRODUCT_DEFINITION_CONTEXT('3D Mechanical Parts',#539,'design');
#536=PRODUCT_DEFINITION('PFV400','PFV400',#537,#535);
#537=PRODUCT_DEFINITION_FORMATION('',$,#541);
#538=APPLICATION_PROTOCOL_DEFINITION('international standard',
'automotive_design',2009,#539);
#539=APPLICATION_CONTEXT(
'Core Data for Automotive Mechanical Design Process');
#540=PRODUCT_CONTEXT('3D Mechanical Parts',#539,'mechanical');
#541=PRODUCT('PFV400','PFV400',$,(#540));
#542=PRESENTATION_STYLE_ASSIGNMENT((#544));
#543=PRESENTATION_STYLE_ASSIGNMENT((#545));
#544=SURFACE_STYLE_USAGE(.BOTH.,#546);
#545=SURFACE_STYLE_USAGE(.BOTH.,#547);
#546=SURFACE_SIDE_STYLE($,(#548));
#547=SURFACE_SIDE_STYLE($,(#549));
#548=SURFACE_STYLE_FILL_AREA(#550);
#549=SURFACE_STYLE_FILL_AREA(#551);
#550=FILL_AREA_STYLE($,(#552));
#551=FILL_AREA_STYLE($,(#553));
#552=FILL_AREA_STYLE_COLOUR($,#554);
#553=FILL_AREA_STYLE_COLOUR($,#555);
#554=COLOUR_RGB('',0.509803921568627,0.509803921568627,0.588235294117647);
#555=COLOUR_RGB('',1.,0.,0.);
ENDSEC;
END-ISO-10303-21;
