ISO-10303-21;
HEADER;
/* Generated by software containing ST-Developer
 * from STEP Tools, Inc. (www.steptools.com) 
 */

FILE_DESCRIPTION(
/* description */ (''),
/* implementation_level */ '2;1');

FILE_NAME(
/* name */ 'C:\\Users\\Gabriele\\Desktop\\catalogo\\TR40\\TR40025B.stp',

/* time_stamp */ '2016-10-17T15:29:26+02:00',
/* author */ ('Gabriele'),
/* organization */ (''),
/* preprocessor_version */ 'ST-DEVELOPER v16.5',
/* originating_system */ 'Autodesk Inventor 2017',
/* authorisation */ '');

FILE_SCHEMA (('AUTOMOTIVE_DESIGN { 1 0 10303 214 3 1 1 }'));
ENDSEC;

DATA;
#10=MECHANICAL_DESIGN_GEOMETRIC_PRESENTATION_REPRESENTATION('',(#13),#449);
#11=SHAPE_REPRESENTATION_RELATIONSHIP('SRR','None',#458,#12);
#12=ADVANCED_BREP_SHAPE_REPRESENTATION('',(#14),#448);
#13=STYLED_ITEM('',(#467),#14);
#14=MANIFOLD_SOLID_BREP('Solido1',#200);
#15=B_SPLINE_CURVE_WITH_KNOTS('',3,(#333,#334,#335,#336,#337,#338,#339,
#340,#341,#342,#343,#344,#345,#346,#347,#348,#349,#350,#351,#352,#353,#354,
#355,#356,#357,#358,#359,#360,#361,#362,#363,#364,#365,#366,#367,#368,#369,
#370,#371,#372,#373,#374),.UNSPECIFIED.,.T.,.F.,(4,2,2,2,2,2,2,2,2,2,2,
2,2,2,2,2,2,2,2,2,4),(0.,0.194167696411335,0.388335392822669,0.776670785645338,
1.15369750431003,1.53072422297472,1.90775094163941,2.2847776603041,2.67311305312677,
2.8672807495381,3.06144844594943,3.25561614236077,3.4497838387721,3.83811923159477,
4.21514595025946,4.59217266892415,4.96919938758884,5.34622610625353,5.7345614990762,
5.92872919548753,6.12289689189887),.UNSPECIFIED.);
#16=B_SPLINE_CURVE_WITH_KNOTS('',3,(#385,#386,#387,#388,#389,#390,#391,
#392,#393,#394,#395,#396,#397,#398,#399,#400,#401,#402,#403,#404,#405,#406,
#407,#408,#409,#410,#411,#412,#413,#414,#415,#416,#417,#418,#419,#420,#421,
#422,#423,#424,#425,#426,#427,#428,#429,#430,#431,#432,#433,#434,#435,#436,
#437,#438,#439,#440,#441,#442),.UNSPECIFIED.,.T.,.F.,(4,2,2,2,2,2,2,2,2,
2,2,2,2,2,2,2,2,2,2,2,2,2,2,2,2,2,2,2,4),(0.,0.291932829575599,0.583865659151199,
0.875798488726798,1.1677313183024,1.72738294150456,2.00720875310564,2.28703456470672,
2.5668603763078,2.84668618790888,3.40633781111105,3.69827064068665,3.99020347026225,
4.28213629983784,4.57406912941344,4.86600195898904,5.15793478856464,5.44986761814024,
5.74180044771584,6.301452070918,6.58127788251908,6.86110369412017,7.14092950572125,
7.42075531732233,7.98040694052449,8.27233977010009,8.56427259967569,8.85620542925129,
9.14813825882689),.UNSPECIFIED.);
#17=PLANE('',#207);
#18=PLANE('',#214);
#19=PLANE('',#221);
#20=PLANE('',#228);
#21=PLANE('',#230);
#22=PLANE('',#231);
#23=CYLINDRICAL_SURFACE('',#205,12.5);
#24=CYLINDRICAL_SURFACE('',#212,12.5);
#25=CYLINDRICAL_SURFACE('',#219,10.);
#26=CYLINDRICAL_SURFACE('',#223,9.5);
#27=CYLINDRICAL_SURFACE('',#225,12.);
#28=CYLINDRICAL_SURFACE('',#229,14.);
#29=CYLINDRICAL_SURFACE('',#232,16.75);
#30=FACE_BOUND('',#65,.T.);
#31=FACE_BOUND('',#67,.T.);
#32=FACE_BOUND('',#69,.T.);
#33=FACE_BOUND('',#71,.T.);
#34=FACE_BOUND('',#73,.T.);
#35=FACE_BOUND('',#75,.T.);
#36=FACE_BOUND('',#77,.T.);
#37=FACE_BOUND('',#79,.T.);
#38=FACE_BOUND('',#81,.T.);
#39=FACE_BOUND('',#83,.T.);
#40=FACE_BOUND('',#85,.T.);
#41=FACE_BOUND('',#86,.T.);
#42=FACE_BOUND('',#88,.T.);
#43=FACE_BOUND('',#90,.T.);
#44=FACE_BOUND('',#92,.T.);
#45=FACE_BOUND('',#94,.T.);
#46=FACE_BOUND('',#96,.T.);
#47=FACE_BOUND('',#97,.T.);
#48=FACE_OUTER_BOUND('',#64,.T.);
#49=FACE_OUTER_BOUND('',#66,.T.);
#50=FACE_OUTER_BOUND('',#68,.T.);
#51=FACE_OUTER_BOUND('',#70,.T.);
#52=FACE_OUTER_BOUND('',#72,.T.);
#53=FACE_OUTER_BOUND('',#74,.T.);
#54=FACE_OUTER_BOUND('',#76,.T.);
#55=FACE_OUTER_BOUND('',#78,.T.);
#56=FACE_OUTER_BOUND('',#80,.T.);
#57=FACE_OUTER_BOUND('',#82,.T.);
#58=FACE_OUTER_BOUND('',#84,.T.);
#59=FACE_OUTER_BOUND('',#87,.T.);
#60=FACE_OUTER_BOUND('',#89,.T.);
#61=FACE_OUTER_BOUND('',#91,.T.);
#62=FACE_OUTER_BOUND('',#93,.T.);
#63=FACE_OUTER_BOUND('',#95,.T.);
#64=EDGE_LOOP('',(#147));
#65=EDGE_LOOP('',(#148));
#66=EDGE_LOOP('',(#149));
#67=EDGE_LOOP('',(#150));
#68=EDGE_LOOP('',(#151));
#69=EDGE_LOOP('',(#152));
#70=EDGE_LOOP('',(#153));
#71=EDGE_LOOP('',(#154));
#72=EDGE_LOOP('',(#155));
#73=EDGE_LOOP('',(#156));
#74=EDGE_LOOP('',(#157));
#75=EDGE_LOOP('',(#158));
#76=EDGE_LOOP('',(#159));
#77=EDGE_LOOP('',(#160));
#78=EDGE_LOOP('',(#161));
#79=EDGE_LOOP('',(#162));
#80=EDGE_LOOP('',(#163));
#81=EDGE_LOOP('',(#164));
#82=EDGE_LOOP('',(#165));
#83=EDGE_LOOP('',(#166));
#84=EDGE_LOOP('',(#167));
#85=EDGE_LOOP('',(#168));
#86=EDGE_LOOP('',(#169));
#87=EDGE_LOOP('',(#170));
#88=EDGE_LOOP('',(#171));
#89=EDGE_LOOP('',(#172));
#90=EDGE_LOOP('',(#173));
#91=EDGE_LOOP('',(#174));
#92=EDGE_LOOP('',(#175));
#93=EDGE_LOOP('',(#176));
#94=EDGE_LOOP('',(#177));
#95=EDGE_LOOP('',(#178));
#96=EDGE_LOOP('',(#179));
#97=EDGE_LOOP('',(#180));
#98=CIRCLE('',#203,12.5);
#99=CIRCLE('',#204,13.);
#100=CIRCLE('',#206,12.5);
#101=CIRCLE('',#208,16.75);
#102=CIRCLE('',#210,12.5);
#103=CIRCLE('',#211,13.);
#104=CIRCLE('',#213,12.5);
#105=CIRCLE('',#215,16.75);
#106=CIRCLE('',#217,10.);
#107=CIRCLE('',#218,10.5);
#108=CIRCLE('',#220,10.);
#109=CIRCLE('',#222,14.);
#110=CIRCLE('',#224,9.5);
#111=CIRCLE('',#226,12.);
#112=CIRCLE('',#227,12.);
#113=VERTEX_POINT('',#299);
#114=VERTEX_POINT('',#301);
#115=VERTEX_POINT('',#304);
#116=VERTEX_POINT('',#307);
#117=VERTEX_POINT('',#310);
#118=VERTEX_POINT('',#312);
#119=VERTEX_POINT('',#315);
#120=VERTEX_POINT('',#318);
#121=VERTEX_POINT('',#321);
#122=VERTEX_POINT('',#323);
#123=VERTEX_POINT('',#326);
#124=VERTEX_POINT('',#329);
#125=VERTEX_POINT('',#332);
#126=VERTEX_POINT('',#375);
#127=VERTEX_POINT('',#378);
#128=VERTEX_POINT('',#380);
#129=VERTEX_POINT('',#384);
#130=EDGE_CURVE('',#113,#113,#98,.T.);
#131=EDGE_CURVE('',#114,#114,#99,.T.);
#132=EDGE_CURVE('',#115,#115,#100,.T.);
#133=EDGE_CURVE('',#116,#116,#101,.T.);
#134=EDGE_CURVE('',#117,#117,#102,.T.);
#135=EDGE_CURVE('',#118,#118,#103,.T.);
#136=EDGE_CURVE('',#119,#119,#104,.T.);
#137=EDGE_CURVE('',#120,#120,#105,.T.);
#138=EDGE_CURVE('',#121,#121,#106,.T.);
#139=EDGE_CURVE('',#122,#122,#107,.T.);
#140=EDGE_CURVE('',#123,#123,#108,.T.);
#141=EDGE_CURVE('',#124,#124,#109,.T.);
#142=EDGE_CURVE('',#125,#125,#15,.T.);
#143=EDGE_CURVE('',#126,#126,#110,.T.);
#144=EDGE_CURVE('',#127,#127,#111,.T.);
#145=EDGE_CURVE('',#128,#128,#112,.T.);
#146=EDGE_CURVE('',#129,#129,#16,.T.);
#147=ORIENTED_EDGE('',*,*,#130,.T.);
#148=ORIENTED_EDGE('',*,*,#131,.T.);
#149=ORIENTED_EDGE('',*,*,#132,.T.);
#150=ORIENTED_EDGE('',*,*,#130,.F.);
#151=ORIENTED_EDGE('',*,*,#133,.T.);
#152=ORIENTED_EDGE('',*,*,#131,.F.);
#153=ORIENTED_EDGE('',*,*,#134,.T.);
#154=ORIENTED_EDGE('',*,*,#135,.T.);
#155=ORIENTED_EDGE('',*,*,#136,.F.);
#156=ORIENTED_EDGE('',*,*,#134,.F.);
#157=ORIENTED_EDGE('',*,*,#137,.T.);
#158=ORIENTED_EDGE('',*,*,#135,.F.);
#159=ORIENTED_EDGE('',*,*,#138,.T.);
#160=ORIENTED_EDGE('',*,*,#139,.T.);
#161=ORIENTED_EDGE('',*,*,#140,.T.);
#162=ORIENTED_EDGE('',*,*,#138,.F.);
#163=ORIENTED_EDGE('',*,*,#141,.F.);
#164=ORIENTED_EDGE('',*,*,#139,.F.);
#165=ORIENTED_EDGE('',*,*,#142,.F.);
#166=ORIENTED_EDGE('',*,*,#143,.F.);
#167=ORIENTED_EDGE('',*,*,#144,.F.);
#168=ORIENTED_EDGE('',*,*,#142,.T.);
#169=ORIENTED_EDGE('',*,*,#145,.F.);
#170=ORIENTED_EDGE('',*,*,#140,.F.);
#171=ORIENTED_EDGE('',*,*,#143,.T.);
#172=ORIENTED_EDGE('',*,*,#141,.T.);
#173=ORIENTED_EDGE('',*,*,#146,.F.);
#174=ORIENTED_EDGE('',*,*,#136,.T.);
#175=ORIENTED_EDGE('',*,*,#145,.T.);
#176=ORIENTED_EDGE('',*,*,#132,.F.);
#177=ORIENTED_EDGE('',*,*,#144,.T.);
#178=ORIENTED_EDGE('',*,*,#133,.F.);
#179=ORIENTED_EDGE('',*,*,#137,.F.);
#180=ORIENTED_EDGE('',*,*,#146,.T.);
#181=TOROIDAL_SURFACE('',#202,13.,0.5);
#182=TOROIDAL_SURFACE('',#209,13.,0.5);
#183=TOROIDAL_SURFACE('',#216,10.5,0.5);
#184=ADVANCED_FACE('',(#48,#30),#181,.T.);
#185=ADVANCED_FACE('',(#49,#31),#23,.F.);
#186=ADVANCED_FACE('',(#50,#32),#17,.T.);
#187=ADVANCED_FACE('',(#51,#33),#182,.T.);
#188=ADVANCED_FACE('',(#52,#34),#24,.F.);
#189=ADVANCED_FACE('',(#53,#35),#18,.F.);
#190=ADVANCED_FACE('',(#54,#36),#183,.T.);
#191=ADVANCED_FACE('',(#55,#37),#25,.F.);
#192=ADVANCED_FACE('',(#56,#38),#19,.T.);
#193=ADVANCED_FACE('',(#57,#39),#26,.F.);
#194=ADVANCED_FACE('',(#58,#40,#41),#27,.F.);
#195=ADVANCED_FACE('',(#59,#42),#20,.T.);
#196=ADVANCED_FACE('',(#60,#43),#28,.T.);
#197=ADVANCED_FACE('',(#61,#44),#21,.F.);
#198=ADVANCED_FACE('',(#62,#45),#22,.T.);
#199=ADVANCED_FACE('',(#63,#46,#47),#29,.T.);
#200=CLOSED_SHELL('',(#184,#185,#186,#187,#188,#189,#190,#191,#192,#193,
#194,#195,#196,#197,#198,#199));
#201=AXIS2_PLACEMENT_3D('placement',#297,#233,#234);
#202=AXIS2_PLACEMENT_3D('',#298,#235,#236);
#203=AXIS2_PLACEMENT_3D('',#300,#237,#238);
#204=AXIS2_PLACEMENT_3D('',#302,#239,#240);
#205=AXIS2_PLACEMENT_3D('',#303,#241,#242);
#206=AXIS2_PLACEMENT_3D('',#305,#243,#244);
#207=AXIS2_PLACEMENT_3D('',#306,#245,#246);
#208=AXIS2_PLACEMENT_3D('',#308,#247,#248);
#209=AXIS2_PLACEMENT_3D('',#309,#249,#250);
#210=AXIS2_PLACEMENT_3D('',#311,#251,#252);
#211=AXIS2_PLACEMENT_3D('',#313,#253,#254);
#212=AXIS2_PLACEMENT_3D('',#314,#255,#256);
#213=AXIS2_PLACEMENT_3D('',#316,#257,#258);
#214=AXIS2_PLACEMENT_3D('',#317,#259,#260);
#215=AXIS2_PLACEMENT_3D('',#319,#261,#262);
#216=AXIS2_PLACEMENT_3D('',#320,#263,#264);
#217=AXIS2_PLACEMENT_3D('',#322,#265,#266);
#218=AXIS2_PLACEMENT_3D('',#324,#267,#268);
#219=AXIS2_PLACEMENT_3D('',#325,#269,#270);
#220=AXIS2_PLACEMENT_3D('',#327,#271,#272);
#221=AXIS2_PLACEMENT_3D('',#328,#273,#274);
#222=AXIS2_PLACEMENT_3D('',#330,#275,#276);
#223=AXIS2_PLACEMENT_3D('',#331,#277,#278);
#224=AXIS2_PLACEMENT_3D('',#376,#279,#280);
#225=AXIS2_PLACEMENT_3D('',#377,#281,#282);
#226=AXIS2_PLACEMENT_3D('',#379,#283,#284);
#227=AXIS2_PLACEMENT_3D('',#381,#285,#286);
#228=AXIS2_PLACEMENT_3D('',#382,#287,#288);
#229=AXIS2_PLACEMENT_3D('',#383,#289,#290);
#230=AXIS2_PLACEMENT_3D('',#443,#291,#292);
#231=AXIS2_PLACEMENT_3D('',#444,#293,#294);
#232=AXIS2_PLACEMENT_3D('',#445,#295,#296);
#233=DIRECTION('axis',(0.,0.,1.));
#234=DIRECTION('refdir',(1.,0.,0.));
#235=DIRECTION('center_axis',(0.,0.,-1.));
#236=DIRECTION('ref_axis',(-1.,0.,0.));
#237=DIRECTION('center_axis',(0.,0.,-1.));
#238=DIRECTION('ref_axis',(-1.,0.,0.));
#239=DIRECTION('center_axis',(0.,0.,1.));
#240=DIRECTION('ref_axis',(-1.,0.,0.));
#241=DIRECTION('center_axis',(0.,0.,-1.));
#242=DIRECTION('ref_axis',(-1.,0.,0.));
#243=DIRECTION('center_axis',(0.,0.,-1.));
#244=DIRECTION('ref_axis',(-1.,0.,0.));
#245=DIRECTION('center_axis',(0.,0.,1.));
#246=DIRECTION('ref_axis',(1.,0.,0.));
#247=DIRECTION('center_axis',(0.,0.,1.));
#248=DIRECTION('ref_axis',(-1.,0.,0.));
#249=DIRECTION('center_axis',(0.,0.,1.));
#250=DIRECTION('ref_axis',(1.,0.,0.));
#251=DIRECTION('center_axis',(0.,0.,1.));
#252=DIRECTION('ref_axis',(-1.,0.,0.));
#253=DIRECTION('center_axis',(0.,0.,-1.));
#254=DIRECTION('ref_axis',(-1.,0.,0.));
#255=DIRECTION('center_axis',(0.,0.,-1.));
#256=DIRECTION('ref_axis',(-1.,0.,0.));
#257=DIRECTION('center_axis',(0.,0.,-1.));
#258=DIRECTION('ref_axis',(-1.,0.,0.));
#259=DIRECTION('center_axis',(0.,0.,1.));
#260=DIRECTION('ref_axis',(1.,0.,0.));
#261=DIRECTION('center_axis',(0.,0.,-1.));
#262=DIRECTION('ref_axis',(-1.,0.,0.));
#263=DIRECTION('center_axis',(0.,-1.,0.));
#264=DIRECTION('ref_axis',(0.,0.,-1.));
#265=DIRECTION('center_axis',(0.,-1.,0.));
#266=DIRECTION('ref_axis',(-1.,0.,0.));
#267=DIRECTION('center_axis',(0.,1.,0.));
#268=DIRECTION('ref_axis',(-1.,0.,0.));
#269=DIRECTION('center_axis',(0.,-1.,0.));
#270=DIRECTION('ref_axis',(-1.,0.,0.));
#271=DIRECTION('center_axis',(0.,-1.,0.));
#272=DIRECTION('ref_axis',(-1.,0.,0.));
#273=DIRECTION('center_axis',(0.,1.,0.));
#274=DIRECTION('ref_axis',(0.,0.,1.));
#275=DIRECTION('center_axis',(0.,-1.,0.));
#276=DIRECTION('ref_axis',(1.,0.,0.));
#277=DIRECTION('center_axis',(0.,-1.,0.));
#278=DIRECTION('ref_axis',(-1.,0.,0.));
#279=DIRECTION('center_axis',(0.,-1.,0.));
#280=DIRECTION('ref_axis',(-1.,0.,0.));
#281=DIRECTION('center_axis',(0.,0.,1.));
#282=DIRECTION('ref_axis',(1.,0.,0.));
#283=DIRECTION('center_axis',(0.,0.,-1.));
#284=DIRECTION('ref_axis',(1.,0.,0.));
#285=DIRECTION('center_axis',(0.,0.,1.));
#286=DIRECTION('ref_axis',(1.,0.,0.));
#287=DIRECTION('center_axis',(0.,1.,0.));
#288=DIRECTION('ref_axis',(0.,0.,1.));
#289=DIRECTION('center_axis',(0.,-1.,0.));
#290=DIRECTION('ref_axis',(1.,0.,0.));
#291=DIRECTION('center_axis',(0.,0.,1.));
#292=DIRECTION('ref_axis',(1.,0.,0.));
#293=DIRECTION('center_axis',(0.,0.,1.));
#294=DIRECTION('ref_axis',(1.,0.,0.));
#295=DIRECTION('center_axis',(0.,0.,1.));
#296=DIRECTION('ref_axis',(-1.,0.,0.));
#297=CARTESIAN_POINT('',(0.,0.,0.));
#298=CARTESIAN_POINT('Origin',(0.,0.,32.5));
#299=CARTESIAN_POINT('',(12.5,-1.53080849893419E-15,32.5));
#300=CARTESIAN_POINT('Origin',(0.,0.,32.5));
#301=CARTESIAN_POINT('',(13.,1.59204083889156E-15,33.));
#302=CARTESIAN_POINT('Origin',(0.,0.,33.));
#303=CARTESIAN_POINT('Origin',(0.,0.,33.));
#304=CARTESIAN_POINT('',(12.5,1.53080849893419E-15,14.));
#305=CARTESIAN_POINT('Origin',(0.,0.,14.));
#306=CARTESIAN_POINT('Origin',(-6.12820093177067E-16,0.,33.));
#307=CARTESIAN_POINT('',(16.75,2.05128338857182E-15,33.));
#308=CARTESIAN_POINT('Origin',(0.,0.,33.));
#309=CARTESIAN_POINT('Origin',(0.,0.,-32.5));
#310=CARTESIAN_POINT('',(12.5,1.53080849893419E-15,-32.5));
#311=CARTESIAN_POINT('Origin',(0.,0.,-32.5));
#312=CARTESIAN_POINT('',(13.,-1.59204083889156E-15,-33.));
#313=CARTESIAN_POINT('Origin',(0.,0.,-33.));
#314=CARTESIAN_POINT('Origin',(0.,0.,-33.));
#315=CARTESIAN_POINT('',(12.5,1.53080849893419E-15,-14.));
#316=CARTESIAN_POINT('Origin',(0.,0.,-14.));
#317=CARTESIAN_POINT('Origin',(-6.12820093177067E-16,0.,-33.));
#318=CARTESIAN_POINT('',(16.75,2.05128338857182E-15,-33.));
#319=CARTESIAN_POINT('Origin',(0.,0.,-33.));
#320=CARTESIAN_POINT('Origin',(0.,27.5,0.));
#321=CARTESIAN_POINT('',(10.,27.5,1.22464679914735E-15));
#322=CARTESIAN_POINT('Origin',(0.,27.5,0.));
#323=CARTESIAN_POINT('',(10.5,28.,-1.28587913910472E-15));
#324=CARTESIAN_POINT('Origin',(0.,28.,0.));
#325=CARTESIAN_POINT('Origin',(0.,28.,0.));
#326=CARTESIAN_POINT('',(10.,14.,-1.22464679914735E-15));
#327=CARTESIAN_POINT('Origin',(0.,14.,0.));
#328=CARTESIAN_POINT('Origin',(1.42875459900525E-16,28.,0.));
#329=CARTESIAN_POINT('',(-14.,28.,1.71450551880629E-15));
#330=CARTESIAN_POINT('Origin',(0.,28.,0.));
#331=CARTESIAN_POINT('Origin',(0.,14.,0.));
#332=CARTESIAN_POINT('',(9.5,7.33143914930759,-2.77555756156289E-16));
#333=CARTESIAN_POINT('Ctrl Pts',(9.5,7.33143914930759,-2.77555756156289E-16));
#334=CARTESIAN_POINT('Ctrl Pts',(9.5,7.33143914930759,-0.647225654704449));
#335=CARTESIAN_POINT('Ctrl Pts',(9.43344266331162,7.41966659192443,-1.29059317790088));
#336=CARTESIAN_POINT('Ctrl Pts',(9.17681941049702,7.73480949747439,-2.53800258871644));
#337=CARTESIAN_POINT('Ctrl Pts',(8.98685286969771,7.96010335463467,-3.14247403344));
#338=CARTESIAN_POINT('Ctrl Pts',(8.25522462966296,8.73832551986327,-4.86373847885827));
#339=CARTESIAN_POINT('Ctrl Pts',(7.5434336182425,9.38563108798099,-5.8915952243019));
#340=CARTESIAN_POINT('Ctrl Pts',(5.91564673042775,10.4853024243098,-7.51938211211665));
#341=CARTESIAN_POINT('Ctrl Pts',(4.88655247818411,11.028189240628,-8.24454195330221));
#342=CARTESIAN_POINT('Ctrl Pts',(2.55839764001382,11.7878734726789,-9.23609641426193));
#343=CARTESIAN_POINT('Ctrl Pts',(1.2567557288823,12.,-9.5));
#344=CARTESIAN_POINT('Ctrl Pts',(-1.2567557288823,12.,-9.5));
#345=CARTESIAN_POINT('Ctrl Pts',(-2.55839764001382,11.7878734726789,-9.23609641426193));
#346=CARTESIAN_POINT('Ctrl Pts',(-4.88655247818411,11.028189240628,-8.24454195330221));
#347=CARTESIAN_POINT('Ctrl Pts',(-5.91564673042775,10.4853024243098,-7.51938211211665));
#348=CARTESIAN_POINT('Ctrl Pts',(-7.5434336182425,9.38563108798099,-5.8915952243019));
#349=CARTESIAN_POINT('Ctrl Pts',(-8.25522462966296,8.73832551986327,-4.86373847885826));
#350=CARTESIAN_POINT('Ctrl Pts',(-8.98685286969771,7.96010335463467,-3.14247403344));
#351=CARTESIAN_POINT('Ctrl Pts',(-9.17681941049702,7.73480949747439,-2.53800258871644));
#352=CARTESIAN_POINT('Ctrl Pts',(-9.43344266331162,7.41966659192443,-1.29059317790088));
#353=CARTESIAN_POINT('Ctrl Pts',(-9.5,7.33143914930759,-0.647225654704448));
#354=CARTESIAN_POINT('Ctrl Pts',(-9.5,7.33143914930759,0.647225654704449));
#355=CARTESIAN_POINT('Ctrl Pts',(-9.43344266331162,7.41966659192443,1.29059317790088));
#356=CARTESIAN_POINT('Ctrl Pts',(-9.17681941049702,7.73480949747439,2.53800258871644));
#357=CARTESIAN_POINT('Ctrl Pts',(-8.98685286969771,7.96010335463467,3.14247403344));
#358=CARTESIAN_POINT('Ctrl Pts',(-8.25522462966296,8.73832551986327,4.86373847885826));
#359=CARTESIAN_POINT('Ctrl Pts',(-7.5434336182425,9.38563108798099,5.89159522430191));
#360=CARTESIAN_POINT('Ctrl Pts',(-5.91564673042775,10.4853024243098,7.51938211211665));
#361=CARTESIAN_POINT('Ctrl Pts',(-4.88655247818411,11.028189240628,8.24454195330221));
#362=CARTESIAN_POINT('Ctrl Pts',(-2.55839764001382,11.7878734726789,9.23609641426193));
#363=CARTESIAN_POINT('Ctrl Pts',(-1.2567557288823,12.,9.5));
#364=CARTESIAN_POINT('Ctrl Pts',(1.2567557288823,12.,9.5));
#365=CARTESIAN_POINT('Ctrl Pts',(2.55839764001382,11.7878734726789,9.23609641426193));
#366=CARTESIAN_POINT('Ctrl Pts',(4.88655247818411,11.028189240628,8.24454195330221));
#367=CARTESIAN_POINT('Ctrl Pts',(5.91564673042775,10.4853024243098,7.51938211211665));
#368=CARTESIAN_POINT('Ctrl Pts',(7.5434336182425,9.38563108798099,5.89159522430191));
#369=CARTESIAN_POINT('Ctrl Pts',(8.25522462966296,8.73832551986327,4.86373847885827));
#370=CARTESIAN_POINT('Ctrl Pts',(8.98685286969771,7.96010335463467,3.14247403344));
#371=CARTESIAN_POINT('Ctrl Pts',(9.17681941049702,7.73480949747439,2.53800258871644));
#372=CARTESIAN_POINT('Ctrl Pts',(9.43344266331162,7.41966659192443,1.29059317790087));
#373=CARTESIAN_POINT('Ctrl Pts',(9.5,7.33143914930759,0.647225654704447));
#374=CARTESIAN_POINT('Ctrl Pts',(9.5,7.33143914930759,1.38777878078145E-16));
#375=CARTESIAN_POINT('',(9.5,14.,-1.16341445918999E-15));
#376=CARTESIAN_POINT('Origin',(0.,14.,0.));
#377=CARTESIAN_POINT('Origin',(0.,0.,-14.));
#378=CARTESIAN_POINT('',(-12.,1.46957615897682E-15,14.));
#379=CARTESIAN_POINT('Origin',(0.,0.,14.));
#380=CARTESIAN_POINT('',(-12.,1.46957615897682E-15,-14.));
#381=CARTESIAN_POINT('Origin',(0.,0.,-14.));
#382=CARTESIAN_POINT('Origin',(-4.72128241470665E-16,14.,0.));
#383=CARTESIAN_POINT('Origin',(0.,28.,0.));
#384=CARTESIAN_POINT('',(14.,9.19578707887476,8.32667268468867E-16));
#385=CARTESIAN_POINT('Ctrl Pts',(14.,9.19578707887476,8.32667268468867E-16));
#386=CARTESIAN_POINT('Ctrl Pts',(14.,9.19578707887476,0.973109431918666));
#387=CARTESIAN_POINT('Ctrl Pts',(13.8986093528515,9.35419163634612,1.92543055474958));
#388=CARTESIAN_POINT('Ctrl Pts',(13.5178783874034,9.89642393792716,3.76106221218972));
#389=CARTESIAN_POINT('Ctrl Pts',(13.2384399959252,10.2771519077815,4.64526663741766));
#390=CARTESIAN_POINT('Ctrl Pts',(12.5223994608746,11.1384767423664,6.32647663705741));
#391=CARTESIAN_POINT('Ctrl Pts',(12.0851234285627,11.6188156635393,7.12398446615224));
#392=CARTESIAN_POINT('Ctrl Pts',(11.0793690076829,12.5815209079036,8.6051696805627));
#393=CARTESIAN_POINT('Ctrl Pts',(10.5104627849935,13.0639324975292,9.28852708822981));
#394=CARTESIAN_POINT('Ctrl Pts',(8.72823527195415,14.3697136461592,11.0707546012692));
#395=CARTESIAN_POINT('Ctrl Pts',(7.21960392071658,15.2228787469239,12.1389964737849));
#396=CARTESIAN_POINT('Ctrl Pts',(4.64755393498988,16.1179031926011,13.2389474182496));
#397=CARTESIAN_POINT('Ctrl Pts',(3.73916011385896,16.3544679300201,13.5246942005822));
#398=CARTESIAN_POINT('Ctrl Pts',(1.88179074317844,16.6705969671571,13.9053060083637));
#399=CARTESIAN_POINT('Ctrl Pts',(0.932752705336938,16.75,14.));
#400=CARTESIAN_POINT('Ctrl Pts',(-0.932752705336935,16.75,14.));
#401=CARTESIAN_POINT('Ctrl Pts',(-1.88179074317844,16.6705969671571,13.9053060083637));
#402=CARTESIAN_POINT('Ctrl Pts',(-3.73916011385895,16.3544679300201,13.5246942005822));
#403=CARTESIAN_POINT('Ctrl Pts',(-4.64755393498988,16.1179031926011,13.2389474182496));
#404=CARTESIAN_POINT('Ctrl Pts',(-7.21960392071658,15.2228787469239,12.1389964737849));
#405=CARTESIAN_POINT('Ctrl Pts',(-8.72823527195415,14.3697136461592,11.0707546012692));
#406=CARTESIAN_POINT('Ctrl Pts',(-10.5104627849935,13.0639324975292,9.28852708822981));
#407=CARTESIAN_POINT('Ctrl Pts',(-11.0793690076829,12.5815209079036,8.6051696805627));
#408=CARTESIAN_POINT('Ctrl Pts',(-12.0851234285627,11.6188156635393,7.12398446615224));
#409=CARTESIAN_POINT('Ctrl Pts',(-12.5223994608746,11.1384767423664,6.32647663705741));
#410=CARTESIAN_POINT('Ctrl Pts',(-13.2384399959252,10.2771519077815,4.64526663741766));
#411=CARTESIAN_POINT('Ctrl Pts',(-13.5178783874034,9.89642393792716,3.76106221218972));
#412=CARTESIAN_POINT('Ctrl Pts',(-13.8986093528515,9.35419163634612,1.92543055474958));
#413=CARTESIAN_POINT('Ctrl Pts',(-14.,9.19578707887475,0.973109431918665));
#414=CARTESIAN_POINT('Ctrl Pts',(-14.,9.19578707887475,-0.973109431918665));
#415=CARTESIAN_POINT('Ctrl Pts',(-13.8986093528515,9.35419163634612,-1.92543055474958));
#416=CARTESIAN_POINT('Ctrl Pts',(-13.5178783874034,9.89642393792716,-3.76106221218972));
#417=CARTESIAN_POINT('Ctrl Pts',(-13.2384399959252,10.2771519077815,-4.64526663741766));
#418=CARTESIAN_POINT('Ctrl Pts',(-12.5223994608746,11.1384767423664,-6.3264766370574));
#419=CARTESIAN_POINT('Ctrl Pts',(-12.0851234285627,11.6188156635393,-7.12398446615223));
#420=CARTESIAN_POINT('Ctrl Pts',(-11.0793690076829,12.5815209079036,-8.6051696805627));
#421=CARTESIAN_POINT('Ctrl Pts',(-10.5104627849935,13.0639324975292,-9.28852708822981));
#422=CARTESIAN_POINT('Ctrl Pts',(-8.72823527195415,14.3697136461592,-11.0707546012692));
#423=CARTESIAN_POINT('Ctrl Pts',(-7.21960392071658,15.2228787469239,-12.1389964737849));
#424=CARTESIAN_POINT('Ctrl Pts',(-4.64755393498988,16.1179031926011,-13.2389474182496));
#425=CARTESIAN_POINT('Ctrl Pts',(-3.73916011385896,16.3544679300201,-13.5246942005822));
#426=CARTESIAN_POINT('Ctrl Pts',(-1.88179074317844,16.6705969671571,-13.9053060083637));
#427=CARTESIAN_POINT('Ctrl Pts',(-0.93275270533694,16.75,-14.));
#428=CARTESIAN_POINT('Ctrl Pts',(0.932752705336935,16.75,-14.));
#429=CARTESIAN_POINT('Ctrl Pts',(1.88179074317844,16.6705969671571,-13.9053060083637));
#430=CARTESIAN_POINT('Ctrl Pts',(3.73916011385896,16.3544679300201,-13.5246942005822));
#431=CARTESIAN_POINT('Ctrl Pts',(4.64755393498988,16.1179031926011,-13.2389474182496));
#432=CARTESIAN_POINT('Ctrl Pts',(7.21960392071658,15.2228787469239,-12.1389964737849));
#433=CARTESIAN_POINT('Ctrl Pts',(8.72823527195415,14.3697136461592,-11.0707546012692));
#434=CARTESIAN_POINT('Ctrl Pts',(10.5104627849935,13.0639324975292,-9.28852708822982));
#435=CARTESIAN_POINT('Ctrl Pts',(11.0793690076829,12.5815209079036,-8.60516968056271));
#436=CARTESIAN_POINT('Ctrl Pts',(12.0851234285627,11.6188156635393,-7.12398446615225));
#437=CARTESIAN_POINT('Ctrl Pts',(12.5223994608746,11.1384767423664,-6.32647663705741));
#438=CARTESIAN_POINT('Ctrl Pts',(13.2384399959252,10.2771519077815,-4.64526663741766));
#439=CARTESIAN_POINT('Ctrl Pts',(13.5178783874034,9.89642393792715,-3.76106221218972));
#440=CARTESIAN_POINT('Ctrl Pts',(13.8986093528515,9.35419163634612,-1.92543055474958));
#441=CARTESIAN_POINT('Ctrl Pts',(14.,9.19578707887475,-0.973109431918663));
#442=CARTESIAN_POINT('Ctrl Pts',(14.,9.19578707887475,-5.55111512312578E-16));
#443=CARTESIAN_POINT('Origin',(-7.19686321377933E-16,0.,-14.));
#444=CARTESIAN_POINT('Origin',(-7.19686321377933E-16,0.,14.));
#445=CARTESIAN_POINT('Origin',(0.,0.,0.));
#446=UNCERTAINTY_MEASURE_WITH_UNIT(LENGTH_MEASURE(0.01),#450,
'DISTANCE_ACCURACY_VALUE',
'Maximum model space distance between geometric entities at asserted c
onnectivities');
#447=UNCERTAINTY_MEASURE_WITH_UNIT(LENGTH_MEASURE(1.E-6),#450,
'DISTANCE_ACCURACY_VALUE',
'Maximum model space distance between geometric entities at asserted c
onnectivities');
#448=(
GEOMETRIC_REPRESENTATION_CONTEXT(3)
GLOBAL_UNCERTAINTY_ASSIGNED_CONTEXT((#446))
GLOBAL_UNIT_ASSIGNED_CONTEXT((#450,#453,#451))
REPRESENTATION_CONTEXT('','3D')
);
#449=(
GEOMETRIC_REPRESENTATION_CONTEXT(3)
GLOBAL_UNCERTAINTY_ASSIGNED_CONTEXT((#447))
GLOBAL_UNIT_ASSIGNED_CONTEXT((#450,#453,#451))
REPRESENTATION_CONTEXT('','3D')
);
#450=(
LENGTH_UNIT()
NAMED_UNIT(*)
SI_UNIT(.MILLI.,.METRE.)
);
#451=(
NAMED_UNIT(*)
SI_UNIT($,.STERADIAN.)
SOLID_ANGLE_UNIT()
);
#452=DIMENSIONAL_EXPONENTS(0.,0.,0.,0.,0.,0.,0.);
#453=(
CONVERSION_BASED_UNIT('degree',#455)
NAMED_UNIT(#452)
PLANE_ANGLE_UNIT()
);
#454=(
NAMED_UNIT(*)
PLANE_ANGLE_UNIT()
SI_UNIT($,.RADIAN.)
);
#455=PLANE_ANGLE_MEASURE_WITH_UNIT(PLANE_ANGLE_MEASURE(0.01745329252),#454);
#456=SHAPE_DEFINITION_REPRESENTATION(#457,#458);
#457=PRODUCT_DEFINITION_SHAPE('',$,#460);
#458=SHAPE_REPRESENTATION('',(#201),#448);
#459=PRODUCT_DEFINITION_CONTEXT('part definition',#464,'design');
#460=PRODUCT_DEFINITION('TR40025B','TR40025B',#461,#459);
#461=PRODUCT_DEFINITION_FORMATION('',$,#466);
#462=PRODUCT_RELATED_PRODUCT_CATEGORY('TR40025B','TR40025B',(#466));
#463=APPLICATION_PROTOCOL_DEFINITION('international standard',
'automotive_design',2009,#464);
#464=APPLICATION_CONTEXT(
'Core Data for Automotive Mechanical Design Process');
#465=PRODUCT_CONTEXT('part definition',#464,'mechanical');
#466=PRODUCT('TR40025B','TR40025B',$,(#465));
#467=PRESENTATION_STYLE_ASSIGNMENT((#468));
#468=SURFACE_STYLE_USAGE(.BOTH.,#469);
#469=SURFACE_SIDE_STYLE('',(#470));
#470=SURFACE_STYLE_FILL_AREA(#471);
#471=FILL_AREA_STYLE('',(#472));
#472=FILL_AREA_STYLE_COLOUR('',#473);
#473=COLOUR_RGB('',0.8,0.8,0.8);
ENDSEC;
END-ISO-10303-21;
