ISO-10303-21;
HEADER;
/* Generated by software containing ST-Developer
 * from STEP Tools, Inc. (www.steptools.com) 
 */

FILE_DESCRIPTION(
/* description */ ('Sechskantmutter, DIN 934, M12, verzinkt'),
/* implementation_level */ '2;1');

FILE_NAME(
/* name */ 
'X:\\SATs und Steps und Dxfs\\Sechskantmuttern DIN 934\\Steps\\105447.
stp',
/* time_stamp */ '2016-04-28T13:22:25+02:00',
/* author */ ('DMK009'),
/* organization */ (''),
/* preprocessor_version */ 'ST-DEVELOPER v16.1',
/* originating_system */ 'Autodesk Inventor 2016',
/* authorisation */ '');

FILE_SCHEMA (('AUTOMOTIVE_DESIGN { 1 0 10303 214 3 1 1 }'));
ENDSEC;

DATA;
#10=MECHANICAL_DESIGN_GEOMETRIC_PRESENTATION_REPRESENTATION('',(#13),#351);
#11=SHAPE_REPRESENTATION_RELATIONSHIP('SRR','None',#360,#12);
#12=ADVANCED_BREP_SHAPE_REPRESENTATION('',(#14),#350);
#13=STYLED_ITEM('',(#369),#14);
#14=MANIFOLD_SOLID_BREP('Solid1',#201);
#15=LINE('',#337,#21);
#16=LINE('',#338,#22);
#17=LINE('',#340,#23);
#18=LINE('',#342,#24);
#19=LINE('',#344,#25);
#20=LINE('',#346,#26);
#21=VECTOR('',#252,7.2637579633949);
#22=VECTOR('',#253,7.2637579633949);
#23=VECTOR('',#256,7.2637579633949);
#24=VECTOR('',#259,7.2637579633949);
#25=VECTOR('',#262,7.2637579633949);
#26=VECTOR('',#265,7.2637579633949);
#27=(
BOUNDED_CURVE()
B_SPLINE_CURVE(2,(#289,#290,#291),.UNSPECIFIED.,.F.,.F.)
B_SPLINE_CURVE_WITH_KNOTS((3,3),(0.,1.11001433117402),.UNSPECIFIED.)
CURVE()
GEOMETRIC_REPRESENTATION_ITEM()
RATIONAL_B_SPLINE_CURVE((1.,1.15470053837925,1.))
REPRESENTATION_ITEM('')
);
#28=(
BOUNDED_CURVE()
B_SPLINE_CURVE(2,(#293,#294,#295),.UNSPECIFIED.,.F.,.F.)
B_SPLINE_CURVE_WITH_KNOTS((3,3),(0.,1.11001433117402),.UNSPECIFIED.)
CURVE()
GEOMETRIC_REPRESENTATION_ITEM()
RATIONAL_B_SPLINE_CURVE((1.,1.15470053837925,1.))
REPRESENTATION_ITEM('')
);
#29=(
BOUNDED_CURVE()
B_SPLINE_CURVE(2,(#297,#298,#299),.UNSPECIFIED.,.F.,.F.)
B_SPLINE_CURVE_WITH_KNOTS((3,3),(0.,1.11001433117402),.UNSPECIFIED.)
CURVE()
GEOMETRIC_REPRESENTATION_ITEM()
RATIONAL_B_SPLINE_CURVE((1.,1.15470053837925,1.))
REPRESENTATION_ITEM('')
);
#30=(
BOUNDED_CURVE()
B_SPLINE_CURVE(2,(#301,#302,#303),.UNSPECIFIED.,.F.,.F.)
B_SPLINE_CURVE_WITH_KNOTS((3,3),(0.,1.11001433117402),.UNSPECIFIED.)
CURVE()
GEOMETRIC_REPRESENTATION_ITEM()
RATIONAL_B_SPLINE_CURVE((1.,1.15470053837925,1.))
REPRESENTATION_ITEM('')
);
#31=(
BOUNDED_CURVE()
B_SPLINE_CURVE(2,(#305,#306,#307),.UNSPECIFIED.,.F.,.F.)
B_SPLINE_CURVE_WITH_KNOTS((3,3),(0.,1.11001433117402),.UNSPECIFIED.)
CURVE()
GEOMETRIC_REPRESENTATION_ITEM()
RATIONAL_B_SPLINE_CURVE((1.,1.15470053837925,1.))
REPRESENTATION_ITEM('')
);
#32=(
BOUNDED_CURVE()
B_SPLINE_CURVE(2,(#308,#309,#310),.UNSPECIFIED.,.F.,.F.)
B_SPLINE_CURVE_WITH_KNOTS((3,3),(0.,1.11001433117402),.UNSPECIFIED.)
CURVE()
GEOMETRIC_REPRESENTATION_ITEM()
RATIONAL_B_SPLINE_CURVE((1.,1.15470053837925,1.))
REPRESENTATION_ITEM('')
);
#33=(
BOUNDED_CURVE()
B_SPLINE_CURVE(2,(#314,#315,#316),.UNSPECIFIED.,.F.,.F.)
B_SPLINE_CURVE_WITH_KNOTS((3,3),(0.,1.11001433117402),.UNSPECIFIED.)
CURVE()
GEOMETRIC_REPRESENTATION_ITEM()
RATIONAL_B_SPLINE_CURVE((1.,1.15470053837925,1.))
REPRESENTATION_ITEM('')
);
#34=(
BOUNDED_CURVE()
B_SPLINE_CURVE(2,(#318,#319,#320),.UNSPECIFIED.,.F.,.F.)
B_SPLINE_CURVE_WITH_KNOTS((3,3),(0.,1.11001433117402),.UNSPECIFIED.)
CURVE()
GEOMETRIC_REPRESENTATION_ITEM()
RATIONAL_B_SPLINE_CURVE((1.,1.15470053837925,1.))
REPRESENTATION_ITEM('')
);
#35=(
BOUNDED_CURVE()
B_SPLINE_CURVE(2,(#322,#323,#324),.UNSPECIFIED.,.F.,.F.)
B_SPLINE_CURVE_WITH_KNOTS((3,3),(0.,1.11001433117402),.UNSPECIFIED.)
CURVE()
GEOMETRIC_REPRESENTATION_ITEM()
RATIONAL_B_SPLINE_CURVE((1.,1.15470053837925,1.))
REPRESENTATION_ITEM('')
);
#36=(
BOUNDED_CURVE()
B_SPLINE_CURVE(2,(#326,#327,#328),.UNSPECIFIED.,.F.,.F.)
B_SPLINE_CURVE_WITH_KNOTS((3,3),(0.,1.11001433117403),.UNSPECIFIED.)
CURVE()
GEOMETRIC_REPRESENTATION_ITEM()
RATIONAL_B_SPLINE_CURVE((1.,1.15470053837925,1.))
REPRESENTATION_ITEM('')
);
#37=(
BOUNDED_CURVE()
B_SPLINE_CURVE(2,(#330,#331,#332),.UNSPECIFIED.,.F.,.F.)
B_SPLINE_CURVE_WITH_KNOTS((3,3),(0.,1.11001433117402),.UNSPECIFIED.)
CURVE()
GEOMETRIC_REPRESENTATION_ITEM()
RATIONAL_B_SPLINE_CURVE((1.,1.15470053837925,1.))
REPRESENTATION_ITEM('')
);
#38=(
BOUNDED_CURVE()
B_SPLINE_CURVE(2,(#333,#334,#335),.UNSPECIFIED.,.F.,.F.)
B_SPLINE_CURVE_WITH_KNOTS((3,3),(0.,1.11001433117402),.UNSPECIFIED.)
CURVE()
GEOMETRIC_REPRESENTATION_ITEM()
RATIONAL_B_SPLINE_CURVE((1.,1.15470053837925,1.))
REPRESENTATION_ITEM('')
);
#39=PLANE('',#208);
#40=PLANE('',#212);
#41=PLANE('',#216);
#42=PLANE('',#217);
#43=PLANE('',#218);
#44=PLANE('',#219);
#45=PLANE('',#220);
#46=PLANE('',#221);
#47=CYLINDRICAL_SURFACE('',#206,5.053);
#48=FACE_BOUND('',#69,.T.);
#49=FACE_BOUND('',#71,.T.);
#50=FACE_BOUND('',#73,.T.);
#51=FACE_BOUND('',#75,.T.);
#52=FACE_BOUND('',#77,.T.);
#53=FACE_BOUND('',#79,.T.);
#54=FACE_BOUND('',#81,.T.);
#55=FACE_OUTER_BOUND('',#68,.T.);
#56=FACE_OUTER_BOUND('',#70,.T.);
#57=FACE_OUTER_BOUND('',#72,.T.);
#58=FACE_OUTER_BOUND('',#74,.T.);
#59=FACE_OUTER_BOUND('',#76,.T.);
#60=FACE_OUTER_BOUND('',#78,.T.);
#61=FACE_OUTER_BOUND('',#80,.T.);
#62=FACE_OUTER_BOUND('',#82,.T.);
#63=FACE_OUTER_BOUND('',#83,.T.);
#64=FACE_OUTER_BOUND('',#84,.T.);
#65=FACE_OUTER_BOUND('',#85,.T.);
#66=FACE_OUTER_BOUND('',#86,.T.);
#67=FACE_OUTER_BOUND('',#87,.T.);
#68=EDGE_LOOP('',(#136));
#69=EDGE_LOOP('',(#137));
#70=EDGE_LOOP('',(#138));
#71=EDGE_LOOP('',(#139));
#72=EDGE_LOOP('',(#140));
#73=EDGE_LOOP('',(#141));
#74=EDGE_LOOP('',(#142));
#75=EDGE_LOOP('',(#143));
#76=EDGE_LOOP('',(#144));
#77=EDGE_LOOP('',(#145));
#78=EDGE_LOOP('',(#146,#147,#148,#149,#150,#151));
#79=EDGE_LOOP('',(#152));
#80=EDGE_LOOP('',(#153,#154,#155,#156,#157,#158));
#81=EDGE_LOOP('',(#159));
#82=EDGE_LOOP('',(#160,#161,#162,#163));
#83=EDGE_LOOP('',(#164,#165,#166,#167));
#84=EDGE_LOOP('',(#168,#169,#170,#171));
#85=EDGE_LOOP('',(#172,#173,#174,#175));
#86=EDGE_LOOP('',(#176,#177,#178,#179));
#87=EDGE_LOOP('',(#180,#181,#182,#183));
#88=CIRCLE('',#204,5.053);
#89=CIRCLE('',#205,6.00021528538923);
#90=CIRCLE('',#207,5.053);
#91=CIRCLE('',#209,8.6);
#92=CIRCLE('',#211,6.00021528538923);
#93=CIRCLE('',#213,8.6);
#94=VERTEX_POINT('',#270);
#95=VERTEX_POINT('',#272);
#96=VERTEX_POINT('',#275);
#97=VERTEX_POINT('',#278);
#98=VERTEX_POINT('',#281);
#99=VERTEX_POINT('',#284);
#100=VERTEX_POINT('',#287);
#101=VERTEX_POINT('',#288);
#102=VERTEX_POINT('',#292);
#103=VERTEX_POINT('',#296);
#104=VERTEX_POINT('',#300);
#105=VERTEX_POINT('',#304);
#106=VERTEX_POINT('',#312);
#107=VERTEX_POINT('',#313);
#108=VERTEX_POINT('',#317);
#109=VERTEX_POINT('',#321);
#110=VERTEX_POINT('',#325);
#111=VERTEX_POINT('',#329);
#112=EDGE_CURVE('',#94,#94,#88,.T.);
#113=EDGE_CURVE('',#95,#95,#89,.T.);
#114=EDGE_CURVE('',#96,#96,#90,.T.);
#115=EDGE_CURVE('',#97,#97,#91,.T.);
#116=EDGE_CURVE('',#98,#98,#92,.T.);
#117=EDGE_CURVE('',#99,#99,#93,.T.);
#118=EDGE_CURVE('',#100,#101,#27,.T.);
#119=EDGE_CURVE('',#102,#100,#28,.T.);
#120=EDGE_CURVE('',#103,#102,#29,.T.);
#121=EDGE_CURVE('',#104,#103,#30,.T.);
#122=EDGE_CURVE('',#105,#104,#31,.T.);
#123=EDGE_CURVE('',#101,#105,#32,.T.);
#124=EDGE_CURVE('',#106,#107,#33,.T.);
#125=EDGE_CURVE('',#108,#106,#34,.T.);
#126=EDGE_CURVE('',#109,#108,#35,.T.);
#127=EDGE_CURVE('',#110,#109,#36,.T.);
#128=EDGE_CURVE('',#111,#110,#37,.T.);
#129=EDGE_CURVE('',#107,#111,#38,.T.);
#130=EDGE_CURVE('',#102,#107,#15,.T.);
#131=EDGE_CURVE('',#103,#111,#16,.T.);
#132=EDGE_CURVE('',#104,#110,#17,.T.);
#133=EDGE_CURVE('',#100,#106,#18,.T.);
#134=EDGE_CURVE('',#101,#108,#19,.T.);
#135=EDGE_CURVE('',#105,#109,#20,.T.);
#136=ORIENTED_EDGE('',*,*,#112,.T.);
#137=ORIENTED_EDGE('',*,*,#113,.T.);
#138=ORIENTED_EDGE('',*,*,#114,.F.);
#139=ORIENTED_EDGE('',*,*,#112,.F.);
#140=ORIENTED_EDGE('',*,*,#115,.T.);
#141=ORIENTED_EDGE('',*,*,#113,.F.);
#142=ORIENTED_EDGE('',*,*,#114,.T.);
#143=ORIENTED_EDGE('',*,*,#116,.T.);
#144=ORIENTED_EDGE('',*,*,#117,.T.);
#145=ORIENTED_EDGE('',*,*,#116,.F.);
#146=ORIENTED_EDGE('',*,*,#118,.F.);
#147=ORIENTED_EDGE('',*,*,#119,.F.);
#148=ORIENTED_EDGE('',*,*,#120,.F.);
#149=ORIENTED_EDGE('',*,*,#121,.F.);
#150=ORIENTED_EDGE('',*,*,#122,.F.);
#151=ORIENTED_EDGE('',*,*,#123,.F.);
#152=ORIENTED_EDGE('',*,*,#115,.F.);
#153=ORIENTED_EDGE('',*,*,#124,.F.);
#154=ORIENTED_EDGE('',*,*,#125,.F.);
#155=ORIENTED_EDGE('',*,*,#126,.F.);
#156=ORIENTED_EDGE('',*,*,#127,.F.);
#157=ORIENTED_EDGE('',*,*,#128,.F.);
#158=ORIENTED_EDGE('',*,*,#129,.F.);
#159=ORIENTED_EDGE('',*,*,#117,.F.);
#160=ORIENTED_EDGE('',*,*,#120,.T.);
#161=ORIENTED_EDGE('',*,*,#130,.T.);
#162=ORIENTED_EDGE('',*,*,#129,.T.);
#163=ORIENTED_EDGE('',*,*,#131,.F.);
#164=ORIENTED_EDGE('',*,*,#121,.T.);
#165=ORIENTED_EDGE('',*,*,#131,.T.);
#166=ORIENTED_EDGE('',*,*,#128,.T.);
#167=ORIENTED_EDGE('',*,*,#132,.F.);
#168=ORIENTED_EDGE('',*,*,#119,.T.);
#169=ORIENTED_EDGE('',*,*,#133,.T.);
#170=ORIENTED_EDGE('',*,*,#124,.T.);
#171=ORIENTED_EDGE('',*,*,#130,.F.);
#172=ORIENTED_EDGE('',*,*,#118,.T.);
#173=ORIENTED_EDGE('',*,*,#134,.T.);
#174=ORIENTED_EDGE('',*,*,#125,.T.);
#175=ORIENTED_EDGE('',*,*,#133,.F.);
#176=ORIENTED_EDGE('',*,*,#122,.T.);
#177=ORIENTED_EDGE('',*,*,#132,.T.);
#178=ORIENTED_EDGE('',*,*,#127,.T.);
#179=ORIENTED_EDGE('',*,*,#135,.F.);
#180=ORIENTED_EDGE('',*,*,#123,.T.);
#181=ORIENTED_EDGE('',*,*,#135,.T.);
#182=ORIENTED_EDGE('',*,*,#126,.T.);
#183=ORIENTED_EDGE('',*,*,#134,.F.);
#184=CONICAL_SURFACE('',#203,5.52660764269461,60.);
#185=CONICAL_SURFACE('',#210,5.52660764269461,60.);
#186=CONICAL_SURFACE('',#214,9.78482755730145,60.);
#187=CONICAL_SURFACE('',#215,9.78482755730145,60.);
#188=ADVANCED_FACE('',(#55,#48),#184,.F.);
#189=ADVANCED_FACE('',(#56,#49),#47,.F.);
#190=ADVANCED_FACE('',(#57,#50),#39,.F.);
#191=ADVANCED_FACE('',(#58,#51),#185,.F.);
#192=ADVANCED_FACE('',(#59,#52),#40,.T.);
#193=ADVANCED_FACE('',(#60,#53),#186,.T.);
#194=ADVANCED_FACE('',(#61,#54),#187,.T.);
#195=ADVANCED_FACE('',(#62),#41,.T.);
#196=ADVANCED_FACE('',(#63),#42,.T.);
#197=ADVANCED_FACE('',(#64),#43,.T.);
#198=ADVANCED_FACE('',(#65),#44,.T.);
#199=ADVANCED_FACE('',(#66),#45,.T.);
#200=ADVANCED_FACE('',(#67),#46,.T.);
#201=CLOSED_SHELL('',(#188,#189,#190,#191,#192,#193,#194,#195,#196,#197,
#198,#199,#200));
#202=AXIS2_PLACEMENT_3D('placement',#268,#222,#223);
#203=AXIS2_PLACEMENT_3D('',#269,#224,#225);
#204=AXIS2_PLACEMENT_3D('',#271,#226,#227);
#205=AXIS2_PLACEMENT_3D('',#273,#228,#229);
#206=AXIS2_PLACEMENT_3D('',#274,#230,#231);
#207=AXIS2_PLACEMENT_3D('',#276,#232,#233);
#208=AXIS2_PLACEMENT_3D('',#277,#234,#235);
#209=AXIS2_PLACEMENT_3D('',#279,#236,#237);
#210=AXIS2_PLACEMENT_3D('',#280,#238,#239);
#211=AXIS2_PLACEMENT_3D('',#282,#240,#241);
#212=AXIS2_PLACEMENT_3D('',#283,#242,#243);
#213=AXIS2_PLACEMENT_3D('',#285,#244,#245);
#214=AXIS2_PLACEMENT_3D('',#286,#246,#247);
#215=AXIS2_PLACEMENT_3D('',#311,#248,#249);
#216=AXIS2_PLACEMENT_3D('',#336,#250,#251);
#217=AXIS2_PLACEMENT_3D('',#339,#254,#255);
#218=AXIS2_PLACEMENT_3D('',#341,#257,#258);
#219=AXIS2_PLACEMENT_3D('',#343,#260,#261);
#220=AXIS2_PLACEMENT_3D('',#345,#263,#264);
#221=AXIS2_PLACEMENT_3D('',#347,#266,#267);
#222=DIRECTION('axis',(0.,0.,1.));
#223=DIRECTION('refdir',(1.,0.,0.));
#224=DIRECTION('center_axis',(-1.,0.,0.));
#225=DIRECTION('ref_axis',(0.,0.,-1.));
#226=DIRECTION('center_axis',(1.,0.,0.));
#227=DIRECTION('ref_axis',(0.,0.,-1.));
#228=DIRECTION('center_axis',(-1.,0.,0.));
#229=DIRECTION('ref_axis',(0.,0.,-1.));
#230=DIRECTION('center_axis',(1.,0.,0.));
#231=DIRECTION('ref_axis',(0.,0.,-1.));
#232=DIRECTION('center_axis',(-1.,0.,0.));
#233=DIRECTION('ref_axis',(0.,0.,1.));
#234=DIRECTION('center_axis',(1.,0.,0.));
#235=DIRECTION('ref_axis',(0.,0.,-1.));
#236=DIRECTION('center_axis',(-1.,0.,0.));
#237=DIRECTION('ref_axis',(0.,1.,0.));
#238=DIRECTION('center_axis',(1.,0.,0.));
#239=DIRECTION('ref_axis',(0.,0.,1.));
#240=DIRECTION('center_axis',(1.,0.,0.));
#241=DIRECTION('ref_axis',(0.,0.,1.));
#242=DIRECTION('center_axis',(1.,0.,0.));
#243=DIRECTION('ref_axis',(0.,0.,-1.));
#244=DIRECTION('center_axis',(1.,0.,0.));
#245=DIRECTION('ref_axis',(1.01235461057874E-16,1.,0.));
#246=DIRECTION('center_axis',(1.,0.,0.));
#247=DIRECTION('ref_axis',(0.,1.,0.));
#248=DIRECTION('center_axis',(-1.,0.,0.));
#249=DIRECTION('ref_axis',(1.01235461057874E-16,1.,0.));
#250=DIRECTION('center_axis',(0.,0.866025403784439,-0.499999999999999));
#251=DIRECTION('ref_axis',(0.,0.499999999999999,0.866025403784439));
#252=DIRECTION('',(1.,0.,0.));
#253=DIRECTION('',(1.,0.,0.));
#254=DIRECTION('center_axis',(0.,2.42900549858977E-15,-1.));
#255=DIRECTION('ref_axis',(-1.,0.,0.));
#256=DIRECTION('',(1.,0.,0.));
#257=DIRECTION('center_axis',(0.,0.866025403784438,0.500000000000001));
#258=DIRECTION('ref_axis',(1.,0.,0.));
#259=DIRECTION('',(1.,0.,0.));
#260=DIRECTION('center_axis',(0.,0.,1.));
#261=DIRECTION('ref_axis',(1.,0.,0.));
#262=DIRECTION('',(1.,0.,0.));
#263=DIRECTION('center_axis',(0.,-0.866025403784438,-0.500000000000001));
#264=DIRECTION('ref_axis',(-1.,0.,0.));
#265=DIRECTION('',(1.,0.,0.));
#266=DIRECTION('center_axis',(0.,-0.866025403784439,0.5));
#267=DIRECTION('ref_axis',(0.,-0.5,-0.866025403784439));
#268=CARTESIAN_POINT('',(0.,0.,0.));
#269=CARTESIAN_POINT('Origin',(0.2734375,0.,0.));
#270=CARTESIAN_POINT('',(0.546875,-6.18814027609158E-16,5.053));
#271=CARTESIAN_POINT('Origin',(0.546875,0.,0.));
#272=CARTESIAN_POINT('',(0.,7.34814444344694E-16,6.00021528538923));
#273=CARTESIAN_POINT('Origin',(0.,0.,0.));
#274=CARTESIAN_POINT('Origin',(-20.8403484302096,0.,0.));
#275=CARTESIAN_POINT('',(9.453125,-6.18814027609158E-16,-5.053));
#276=CARTESIAN_POINT('Origin',(9.453125,0.,0.));
#277=CARTESIAN_POINT('Origin',(0.,5.55111512312578E-16,-5.96744875736022E-15));
#278=CARTESIAN_POINT('',(0.,8.6,0.));
#279=CARTESIAN_POINT('Origin',(0.,0.,0.));
#280=CARTESIAN_POINT('Origin',(9.7265625,0.,0.));
#281=CARTESIAN_POINT('',(10.,7.34814444344694E-16,-6.00021528538923));
#282=CARTESIAN_POINT('Origin',(10.,0.,0.));
#283=CARTESIAN_POINT('Origin',(10.,8.32667268468868E-16,-6.38378239159465E-15));
#284=CARTESIAN_POINT('',(10.,8.6,0.));
#285=CARTESIAN_POINT('Origin',(10.,0.,0.));
#286=CARTESIAN_POINT('Origin',(0.684060509151275,0.,0.));
#287=CARTESIAN_POINT('',(1.36812101830255,5.48482755730145,9.5));
#288=CARTESIAN_POINT('',(1.36812101830255,-5.48482755730145,9.5));
#289=CARTESIAN_POINT('Ctrl Pts',(1.36812101830255,5.48482755730145,9.5));
#290=CARTESIAN_POINT('Ctrl Pts',(-0.215212315030785,0.,9.5));
#291=CARTESIAN_POINT('Ctrl Pts',(1.36812101830255,-5.48482755730145,9.5));
#292=CARTESIAN_POINT('',(1.36812101830255,10.9696551146029,0.));
#293=CARTESIAN_POINT('Ctrl Pts',(1.36812101830255,10.9696551146029,4.35630292224159E-15));
#294=CARTESIAN_POINT('Ctrl Pts',(-0.215212315030783,8.22724133595216,4.75000000000001));
#295=CARTESIAN_POINT('Ctrl Pts',(1.36812101830255,5.48482755730144,9.50000000000001));
#296=CARTESIAN_POINT('',(1.36812101830255,5.48482755730148,-9.49999999999998));
#297=CARTESIAN_POINT('Ctrl Pts',(1.36812101830255,5.48482755730148,-9.49999999999998));
#298=CARTESIAN_POINT('Ctrl Pts',(-0.215212315030773,8.22724133595218,-4.74999999999999));
#299=CARTESIAN_POINT('Ctrl Pts',(1.36812101830255,10.9696551146029,2.48931595556662E-15));
#300=CARTESIAN_POINT('',(1.36812101830255,-5.4848275573014,-9.50000000000003));
#301=CARTESIAN_POINT('Ctrl Pts',(1.36812101830255,-5.4848275573014,-9.50000000000003));
#302=CARTESIAN_POINT('Ctrl Pts',(-0.21521231503077,2.24333256192025E-14,
-9.50000000000001));
#303=CARTESIAN_POINT('Ctrl Pts',(1.36812101830255,5.48482755730145,-9.5));
#304=CARTESIAN_POINT('',(1.36812101830255,-10.9696551146029,-1.11022302462516E-15));
#305=CARTESIAN_POINT('Ctrl Pts',(1.36812101830255,-10.9696551146029,6.22328988891656E-16));
#306=CARTESIAN_POINT('Ctrl Pts',(-0.215212315030787,-8.22724133595216,-4.75000000000001));
#307=CARTESIAN_POINT('Ctrl Pts',(1.36812101830255,-5.48482755730143,-9.50000000000001));
#308=CARTESIAN_POINT('Ctrl Pts',(1.36812101830255,-5.48482755730145,9.5));
#309=CARTESIAN_POINT('Ctrl Pts',(-0.21521231503078,-8.22724133595217,4.75));
#310=CARTESIAN_POINT('Ctrl Pts',(1.36812101830255,-10.9696551146029,0.));
#311=CARTESIAN_POINT('Origin',(9.31593949084873,0.,0.));
#312=CARTESIAN_POINT('',(8.63187898169745,5.48482755730145,9.5));
#313=CARTESIAN_POINT('',(8.63187898169745,10.9696551146029,0.));
#314=CARTESIAN_POINT('Ctrl Pts',(8.63187898169745,5.48482755730144,9.50000000000001));
#315=CARTESIAN_POINT('Ctrl Pts',(10.2152123150308,8.22724133595217,4.75000000000001));
#316=CARTESIAN_POINT('Ctrl Pts',(8.63187898169745,10.9696551146029,3.73397393334994E-15));
#317=CARTESIAN_POINT('',(8.63187898169745,-5.48482755730145,9.5));
#318=CARTESIAN_POINT('Ctrl Pts',(8.63187898169745,-5.48482755730146,9.5));
#319=CARTESIAN_POINT('Ctrl Pts',(10.2152123150308,0.,9.5));
#320=CARTESIAN_POINT('Ctrl Pts',(8.63187898169745,5.48482755730146,9.5));
#321=CARTESIAN_POINT('',(8.63187898169745,-10.9696551146029,-1.11022302462516E-15));
#322=CARTESIAN_POINT('Ctrl Pts',(8.63187898169745,-10.9696551146029,-1.24465797778331E-15));
#323=CARTESIAN_POINT('Ctrl Pts',(10.2152123150308,-8.22724133595217,4.75));
#324=CARTESIAN_POINT('Ctrl Pts',(8.63187898169745,-5.48482755730145,9.5));
#325=CARTESIAN_POINT('',(8.63187898169745,-5.4848275573014,-9.50000000000003));
#326=CARTESIAN_POINT('Ctrl Pts',(8.63187898169745,-5.48482755730142,-9.50000000000001));
#327=CARTESIAN_POINT('Ctrl Pts',(10.2152123150308,-8.22724133595216,-4.75000000000001));
#328=CARTESIAN_POINT('Ctrl Pts',(8.63187898169745,-10.9696551146029,6.84561887780822E-15));
#329=CARTESIAN_POINT('',(8.63187898169745,5.48482755730148,-9.49999999999998));
#330=CARTESIAN_POINT('Ctrl Pts',(8.63187898169745,5.48482755730145,-9.5));
#331=CARTESIAN_POINT('Ctrl Pts',(10.2152123150308,2.15519677212767E-14,
-9.50000000000001));
#332=CARTESIAN_POINT('Ctrl Pts',(8.63187898169745,-5.48482755730141,-9.50000000000003));
#333=CARTESIAN_POINT('Ctrl Pts',(8.63187898169745,10.9696551146029,5.6009609000249E-15));
#334=CARTESIAN_POINT('Ctrl Pts',(10.2152123150308,8.22724133595218,-4.74999999999999));
#335=CARTESIAN_POINT('Ctrl Pts',(8.63187898169745,5.48482755730147,-9.49999999999998));
#336=CARTESIAN_POINT('Origin',(0.,10.9696551146029,2.86565260874789E-15));
#337=CARTESIAN_POINT('',(0.,10.9696551146029,2.86565260874789E-15));
#338=CARTESIAN_POINT('',(0.,5.48482755730146,-9.5));
#339=CARTESIAN_POINT('Origin',(0.,5.48482755730146,-9.5));
#340=CARTESIAN_POINT('',(0.,-5.48482755730142,-9.50000000000003));
#341=CARTESIAN_POINT('Origin',(0.,5.48482755730144,9.5));
#342=CARTESIAN_POINT('',(0.,5.48482755730144,9.5));
#343=CARTESIAN_POINT('Origin',(0.,-5.48482755730145,9.5));
#344=CARTESIAN_POINT('',(0.,-5.48482755730145,9.5));
#345=CARTESIAN_POINT('Origin',(0.,-5.48482755730142,-9.50000000000003));
#346=CARTESIAN_POINT('',(0.,-10.9696551146029,4.29899872662046E-16));
#347=CARTESIAN_POINT('Origin',(0.,-10.9696551146029,4.29899872662046E-16));
#348=UNCERTAINTY_MEASURE_WITH_UNIT(LENGTH_MEASURE(0.01),#352,
'DISTANCE_ACCURACY_VALUE',
'Maximum model space distance between geometric entities at asserted c
onnectivities');
#349=UNCERTAINTY_MEASURE_WITH_UNIT(LENGTH_MEASURE(1.E-6),#352,
'DISTANCE_ACCURACY_VALUE',
'Maximum model space distance between geometric entities at asserted c
onnectivities');
#350=(
GEOMETRIC_REPRESENTATION_CONTEXT(3)
GLOBAL_UNCERTAINTY_ASSIGNED_CONTEXT((#348))
GLOBAL_UNIT_ASSIGNED_CONTEXT((#352,#355,#353))
REPRESENTATION_CONTEXT('','3D')
);
#351=(
GEOMETRIC_REPRESENTATION_CONTEXT(3)
GLOBAL_UNCERTAINTY_ASSIGNED_CONTEXT((#349))
GLOBAL_UNIT_ASSIGNED_CONTEXT((#352,#355,#353))
REPRESENTATION_CONTEXT('','3D')
);
#352=(
LENGTH_UNIT()
NAMED_UNIT(*)
SI_UNIT(.MILLI.,.METRE.)
);
#353=(
NAMED_UNIT(*)
SI_UNIT($,.STERADIAN.)
SOLID_ANGLE_UNIT()
);
#354=DIMENSIONAL_EXPONENTS(0.,0.,0.,0.,0.,0.,0.);
#355=(
CONVERSION_BASED_UNIT('degree',#357)
NAMED_UNIT(#354)
PLANE_ANGLE_UNIT()
);
#356=(
NAMED_UNIT(*)
PLANE_ANGLE_UNIT()
SI_UNIT($,.RADIAN.)
);
#357=PLANE_ANGLE_MEASURE_WITH_UNIT(PLANE_ANGLE_MEASURE(0.01745329252),#356);
#358=SHAPE_DEFINITION_REPRESENTATION(#359,#360);
#359=PRODUCT_DEFINITION_SHAPE('',$,#362);
#360=SHAPE_REPRESENTATION('',(#202),#350);
#361=PRODUCT_DEFINITION_CONTEXT('part definition',#366,'design');
#362=PRODUCT_DEFINITION('6KtMu M12 vz DIN934-+-105447',
'6KtMu M12 vz DIN934-+-105447',#363,#361);
#363=PRODUCT_DEFINITION_FORMATION('',$,#368);
#364=PRODUCT_RELATED_PRODUCT_CATEGORY('6KtMu M12 vz DIN934-+-105447',
'6KtMu M12 vz DIN934-+-105447',(#368));
#365=APPLICATION_PROTOCOL_DEFINITION('international standard',
'automotive_design',2009,#366);
#366=APPLICATION_CONTEXT(
'Core Data for Automotive Mechanical Design Process');
#367=PRODUCT_CONTEXT('part definition',#366,'mechanical');
#368=PRODUCT('6KtMu M12 vz DIN934-+-105447',
'6KtMu M12 vz DIN934-+-105447',$,(#367));
#369=PRESENTATION_STYLE_ASSIGNMENT((#370));
#370=SURFACE_STYLE_USAGE(.BOTH.,#371);
#371=SURFACE_SIDE_STYLE('',(#372));
#372=SURFACE_STYLE_FILL_AREA(#373);
#373=FILL_AREA_STYLE('',(#374));
#374=FILL_AREA_STYLE_COLOUR('',#375);
#375=COLOUR_RGB('',0.63921568627451,0.63921568627451,0.686274509803922);
ENDSEC;
END-ISO-10303-21;
