ISO-10303-21;
HEADER;
FILE_DESCRIPTION( ( '' ), '1' );
FILE_NAME( '//se01002/users/anro/AGRU_3M705045017_PE-RC_Mineline_II_Mineline_II_Rohr_5m_450x26_7__SDR17__ISO_S-8_05.stp', '2017-12-12T08:24:22', ( '' ), ( '' ), ' ', ' ', ' ' );
FILE_SCHEMA( ( 'automotive_design' ) );
ENDSEC;
DATA;
#1 = MECHANICAL_DESIGN_GEOMETRIC_PRESENTATION_REPRESENTATION( ' ', ( #10, #11, #12, #13, #14, #15, #16, #17, #18, #19, #20, #21, #22, #23, #24, #25, #26, #27, #28, #29, #30, #31, #32, #33, #34, #35, #36 ), #6 );
#2 = PRODUCT_DEFINITION_CONTEXT( '', #37, 'design' );
#3 = APPLICATION_PROTOCOL_DEFINITION( 'INTERNATIONAL STANDARD', 'automotive_design', 1994, #37 );
#4 = PRODUCT_CATEGORY_RELATIONSHIP( 'NONE', 'NONE', #38, #39 );
#5 = SHAPE_DEFINITION_REPRESENTATION( #40, #41 );
#6 =  ( GEOMETRIC_REPRESENTATION_CONTEXT( 3 )GLOBAL_UNCERTAINTY_ASSIGNED_CONTEXT( ( #44 ) )GLOBAL_UNIT_ASSIGNED_CONTEXT( ( #46, #47, #48 ) )REPRESENTATION_CONTEXT( 'NONE', 'WORKSPACE' ) );
#10 = STYLED_ITEM( '', ( #50 ), #51 );
#11 = STYLED_ITEM( '', ( #52 ), #53 );
#12 = STYLED_ITEM( '', ( #54 ), #55 );
#13 = STYLED_ITEM( '', ( #56 ), #57 );
#14 = STYLED_ITEM( '', ( #58 ), #59 );
#15 = STYLED_ITEM( '', ( #60 ), #61 );
#16 = STYLED_ITEM( '', ( #62 ), #63 );
#17 = STYLED_ITEM( '', ( #64 ), #65 );
#18 = STYLED_ITEM( '', ( #66 ), #67 );
#19 = STYLED_ITEM( '', ( #68 ), #69 );
#20 = STYLED_ITEM( '', ( #70 ), #71 );
#21 = STYLED_ITEM( '', ( #72 ), #73 );
#22 = STYLED_ITEM( '', ( #74 ), #75 );
#23 = STYLED_ITEM( '', ( #76 ), #77 );
#24 = STYLED_ITEM( '', ( #78 ), #79 );
#25 = STYLED_ITEM( '', ( #80 ), #81 );
#26 = STYLED_ITEM( '', ( #82 ), #83 );
#27 = STYLED_ITEM( '', ( #84 ), #85 );
#28 = STYLED_ITEM( '', ( #86 ), #87 );
#29 = STYLED_ITEM( '', ( #88 ), #89 );
#30 = STYLED_ITEM( '', ( #90 ), #91 );
#31 = STYLED_ITEM( '', ( #92 ), #93 );
#32 = STYLED_ITEM( '', ( #94 ), #95 );
#33 = STYLED_ITEM( '', ( #96 ), #97 );
#34 = STYLED_ITEM( '', ( #98 ), #99 );
#35 = STYLED_ITEM( '', ( #100 ), #101 );
#36 = STYLED_ITEM( '', ( #102 ), #103 );
#37 = APPLICATION_CONTEXT( ' ' );
#38 = PRODUCT_CATEGORY( 'part', 'NONE' );
#39 = PRODUCT_RELATED_PRODUCT_CATEGORY( 'detail', ' ', ( #104 ) );
#40 = PRODUCT_DEFINITION_SHAPE( 'NONE', 'NONE', #105 );
#41 = ADVANCED_BREP_SHAPE_REPRESENTATION( '1', ( #73, #106 ), #6 );
#44 = UNCERTAINTY_MEASURE_WITH_UNIT( LENGTH_MEASURE( 1.00000000000000E-006 ), #46, '', '' );
#46 =  ( CONVERSION_BASED_UNIT( 'MILLIMETRE', #109 )LENGTH_UNIT(  )NAMED_UNIT( #112 ) );
#47 =  ( NAMED_UNIT( #114 )PLANE_ANGLE_UNIT(  )SI_UNIT( $, .RADIAN. ) );
#48 =  ( NAMED_UNIT( #114 )SOLID_ANGLE_UNIT(  )SI_UNIT( $, .STERADIAN. ) );
#50 = PRESENTATION_STYLE_ASSIGNMENT( ( #120 ) );
#51 = EDGE_CURVE( '', #75, #103, #121, .T. );
#52 = PRESENTATION_STYLE_ASSIGNMENT( ( #122 ) );
#53 = EDGE_CURVE( '', #99, #87, #123, .T. );
#54 = PRESENTATION_STYLE_ASSIGNMENT( ( #124 ) );
#55 = EDGE_CURVE( '', #87, #67, #125, .T. );
#56 = PRESENTATION_STYLE_ASSIGNMENT( ( #126 ) );
#57 = EDGE_CURVE( '', #63, #59, #127, .T. );
#58 = PRESENTATION_STYLE_ASSIGNMENT( ( #128 ) );
#59 = VERTEX_POINT( '', #129 );
#60 = PRESENTATION_STYLE_ASSIGNMENT( ( #130 ) );
#61 = ADVANCED_FACE( '', ( #131 ), #132, .T. );
#62 = PRESENTATION_STYLE_ASSIGNMENT( ( #133 ) );
#63 = VERTEX_POINT( '', #134 );
#64 = PRESENTATION_STYLE_ASSIGNMENT( ( #135 ) );
#65 = ADVANCED_FACE( '', ( #136 ), #137, .F. );
#66 = PRESENTATION_STYLE_ASSIGNMENT( ( #138 ) );
#67 = VERTEX_POINT( '', #139 );
#68 = PRESENTATION_STYLE_ASSIGNMENT( ( #140 ) );
#69 = EDGE_CURVE( '', #75, #59, #141, .T. );
#70 = PRESENTATION_STYLE_ASSIGNMENT( ( #142 ) );
#71 = EDGE_CURVE( '', #77, #99, #143, .T. );
#72 = PRESENTATION_STYLE_ASSIGNMENT( ( #144 ) );
#73 = MANIFOLD_SOLID_BREP( '1', #145 );
#74 = PRESENTATION_STYLE_ASSIGNMENT( ( #146 ) );
#75 = VERTEX_POINT( '', #147 );
#76 = PRESENTATION_STYLE_ASSIGNMENT( ( #148 ) );
#77 = VERTEX_POINT( '', #149 );
#78 = PRESENTATION_STYLE_ASSIGNMENT( ( #150 ) );
#79 = ADVANCED_FACE( '', ( #151, #152 ), #153, .F. );
#80 = PRESENTATION_STYLE_ASSIGNMENT( ( #154 ) );
#81 = EDGE_CURVE( '', #103, #75, #155, .T. );
#82 = PRESENTATION_STYLE_ASSIGNMENT( ( #156 ) );
#83 = ADVANCED_FACE( '', ( #157 ), #158, .T. );
#84 = PRESENTATION_STYLE_ASSIGNMENT( ( #159 ) );
#85 = EDGE_CURVE( '', #67, #87, #160, .T. );
#86 = PRESENTATION_STYLE_ASSIGNMENT( ( #161 ) );
#87 = VERTEX_POINT( '', #162 );
#88 = PRESENTATION_STYLE_ASSIGNMENT( ( #163 ) );
#89 = EDGE_CURVE( '', #63, #103, #164, .T. );
#90 = PRESENTATION_STYLE_ASSIGNMENT( ( #165 ) );
#91 = ADVANCED_FACE( '', ( #166, #167 ), #168, .T. );
#92 = PRESENTATION_STYLE_ASSIGNMENT( ( #169 ) );
#93 = EDGE_CURVE( '', #99, #77, #170, .T. );
#94 = PRESENTATION_STYLE_ASSIGNMENT( ( #171 ) );
#95 = EDGE_CURVE( '', #67, #77, #172, .T. );
#96 = PRESENTATION_STYLE_ASSIGNMENT( ( #173 ) );
#97 = ADVANCED_FACE( '', ( #174 ), #175, .F. );
#98 = PRESENTATION_STYLE_ASSIGNMENT( ( #176 ) );
#99 = VERTEX_POINT( '', #177 );
#100 = PRESENTATION_STYLE_ASSIGNMENT( ( #178 ) );
#101 = EDGE_CURVE( '', #59, #63, #179, .T. );
#102 = PRESENTATION_STYLE_ASSIGNMENT( ( #180 ) );
#103 = VERTEX_POINT( '', #181 );
#104 = PRODUCT( '1', '1', 'PART-1-DESC', ( #182 ) );
#105 = PRODUCT_DEFINITION( 'NONE', 'NONE', #183, #2 );
#106 = AXIS2_PLACEMENT_3D( '', #184, #185, #186 );
#109 = LENGTH_MEASURE_WITH_UNIT( LENGTH_MEASURE( 1.00000000000000 ), #187 );
#112 = DIMENSIONAL_EXPONENTS( 1.00000000000000, 0.000000000000000, 0.000000000000000, 0.000000000000000, 0.000000000000000, 0.000000000000000, 0.000000000000000 );
#114 = DIMENSIONAL_EXPONENTS( 0.000000000000000, 0.000000000000000, 0.000000000000000, 0.000000000000000, 0.000000000000000, 0.000000000000000, 0.000000000000000 );
#120 = CURVE_STYLE( '', #188, POSITIVE_LENGTH_MEASURE( 1.00000000000000E-006 ), #189 );
#121 = CIRCLE( '', #190, 198.300000000000 );
#122 = CURVE_STYLE( '', #191, POSITIVE_LENGTH_MEASURE( 1.00000000000000E-006 ), #192 );
#123 = LINE( '', #193, #194 );
#124 = CURVE_STYLE( '', #195, POSITIVE_LENGTH_MEASURE( 1.00000000000000E-006 ), #196 );
#125 = CIRCLE( '', #197, 225.000000000000 );
#126 = CURVE_STYLE( '', #198, POSITIVE_LENGTH_MEASURE( 1.00000000000000E-006 ), #199 );
#127 = CIRCLE( '', #200, 198.300000000000 );
#128 = POINT_STYLE( ' ', #201, POSITIVE_LENGTH_MEASURE( 1.00000000000000E-006 ), #202 );
#129 = CARTESIAN_POINT( '', ( 0.000000000000000, 2.42839439962977E-014, 198.300000000000 ) );
#130 = SURFACE_STYLE_USAGE( .BOTH., #203 );
#131 = FACE_OUTER_BOUND( '', #204, .T. );
#132 = CYLINDRICAL_SURFACE( '', #205, 225.000000000000 );
#133 = POINT_STYLE( ' ', #206, POSITIVE_LENGTH_MEASURE( 1.00000000000000E-006 ), #207 );
#134 = CARTESIAN_POINT( '', ( 0.000000000000000, 0.000000000000000, -198.300000000000 ) );
#135 = SURFACE_STYLE_USAGE( .BOTH., #208 );
#136 = FACE_OUTER_BOUND( '', #209, .T. );
#137 = CYLINDRICAL_SURFACE( '', #210, 198.300000000000 );
#138 = POINT_STYLE( ' ', #211, POSITIVE_LENGTH_MEASURE( 1.00000000000000E-006 ), #212 );
#139 = CARTESIAN_POINT( '', ( 0.000000000000000, 0.000000000000000, -225.000000000000 ) );
#140 = CURVE_STYLE( '', #213, POSITIVE_LENGTH_MEASURE( 1.00000000000000E-006 ), #214 );
#141 = LINE( '', #215, #216 );
#142 = CURVE_STYLE( '', #217, POSITIVE_LENGTH_MEASURE( 1.00000000000000E-006 ), #218 );
#143 = CIRCLE( '', #219, 225.000000000000 );
#144 = SURFACE_STYLE_USAGE( .BOTH., #220 );
#145 = CLOSED_SHELL( '', ( #61, #97, #65, #83, #91, #79 ) );
#146 = POINT_STYLE( ' ', #221, POSITIVE_LENGTH_MEASURE( 1.00000000000000E-006 ), #222 );
#147 = CARTESIAN_POINT( '', ( 5000.00000000000, 2.42839439962977E-014, 198.300000000000 ) );
#148 = POINT_STYLE( ' ', #223, POSITIVE_LENGTH_MEASURE( 1.00000000000000E-006 ), #224 );
#149 = CARTESIAN_POINT( '', ( 5000.00000000000, 0.000000000000000, -225.000000000000 ) );
#150 = SURFACE_STYLE_USAGE( .BOTH., #225 );
#151 = FACE_OUTER_BOUND( '', #226, .T. );
#152 = FACE_BOUND( '', #227, .T. );
#153 = PLANE( '', #228 );
#154 = CURVE_STYLE( '', #229, POSITIVE_LENGTH_MEASURE( 1.00000000000000E-006 ), #230 );
#155 = CIRCLE( '', #231, 198.300000000000 );
#156 = SURFACE_STYLE_USAGE( .BOTH., #232 );
#157 = FACE_OUTER_BOUND( '', #233, .T. );
#158 = CYLINDRICAL_SURFACE( '', #234, 225.000000000000 );
#159 = CURVE_STYLE( '', #235, POSITIVE_LENGTH_MEASURE( 1.00000000000000E-006 ), #236 );
#160 = CIRCLE( '', #237, 225.000000000000 );
#161 = POINT_STYLE( ' ', #238, POSITIVE_LENGTH_MEASURE( 1.00000000000000E-006 ), #239 );
#162 = CARTESIAN_POINT( '', ( 0.000000000000000, 2.75536429610035E-014, 225.000000000000 ) );
#163 = CURVE_STYLE( '', #240, POSITIVE_LENGTH_MEASURE( 1.00000000000000E-006 ), #241 );
#164 = LINE( '', #242, #243 );
#165 = SURFACE_STYLE_USAGE( .BOTH., #244 );
#166 = FACE_OUTER_BOUND( '', #245, .T. );
#167 = FACE_BOUND( '', #246, .T. );
#168 = PLANE( '', #247 );
#169 = CURVE_STYLE( '', #248, POSITIVE_LENGTH_MEASURE( 1.00000000000000E-006 ), #249 );
#170 = CIRCLE( '', #250, 225.000000000000 );
#171 = CURVE_STYLE( '', #251, POSITIVE_LENGTH_MEASURE( 1.00000000000000E-006 ), #252 );
#172 = LINE( '', #253, #254 );
#173 = SURFACE_STYLE_USAGE( .BOTH., #255 );
#174 = FACE_OUTER_BOUND( '', #256, .T. );
#175 = CYLINDRICAL_SURFACE( '', #257, 198.300000000000 );
#176 = POINT_STYLE( ' ', #258, POSITIVE_LENGTH_MEASURE( 1.00000000000000E-006 ), #259 );
#177 = CARTESIAN_POINT( '', ( 5000.00000000000, 2.75536429610035E-014, 225.000000000000 ) );
#178 = CURVE_STYLE( '', #260, POSITIVE_LENGTH_MEASURE( 1.00000000000000E-006 ), #261 );
#179 = CIRCLE( '', #262, 198.300000000000 );
#180 = POINT_STYLE( ' ', #263, POSITIVE_LENGTH_MEASURE( 1.00000000000000E-006 ), #264 );
#181 = CARTESIAN_POINT( '', ( 5000.00000000000, 0.000000000000000, -198.300000000000 ) );
#182 = PRODUCT_CONTEXT( '', #37, 'mechanical' );
#183 = PRODUCT_DEFINITION_FORMATION_WITH_SPECIFIED_SOURCE( ' ', 'NONE', #104, .NOT_KNOWN. );
#184 = CARTESIAN_POINT( '', ( 0.000000000000000, 0.000000000000000, 0.000000000000000 ) );
#185 = DIRECTION( '', ( 0.000000000000000, 0.000000000000000, 1.00000000000000 ) );
#186 = DIRECTION( '', ( 1.00000000000000, 0.000000000000000, 0.000000000000000 ) );
#187 =  ( NAMED_UNIT( #112 )LENGTH_UNIT(  )SI_UNIT( .MILLI., .METRE. ) );
#188 = DRAUGHTING_PRE_DEFINED_CURVE_FONT( 'continuous' );
#189 = COLOUR_RGB( '', 0.689999997615810, 0.689999997615810, 0.689999997615810 );
#190 = AXIS2_PLACEMENT_3D( '', #266, #267, #268 );
#191 = DRAUGHTING_PRE_DEFINED_CURVE_FONT( 'continuous' );
#192 = COLOUR_RGB( '', 0.689999997615810, 0.689999997615810, 0.689999997615810 );
#193 = CARTESIAN_POINT( '', ( 0.000000000000000, 2.75536429610035E-014, 225.000000000000 ) );
#194 = VECTOR( '', #269, 1.00000000000000 );
#195 = DRAUGHTING_PRE_DEFINED_CURVE_FONT( 'continuous' );
#196 = COLOUR_RGB( '', 0.689999997615810, 0.689999997615810, 0.689999997615810 );
#197 = AXIS2_PLACEMENT_3D( '', #270, #271, #272 );
#198 = DRAUGHTING_PRE_DEFINED_CURVE_FONT( 'continuous' );
#199 = COLOUR_RGB( '', 0.689999997615810, 0.689999997615810, 0.689999997615810 );
#200 = AXIS2_PLACEMENT_3D( '', #273, #274, #275 );
#201 = PRE_DEFINED_MARKER( '' );
#202 = COLOUR_RGB( '', 0.689999997615810, 0.689999997615810, 0.689999997615810 );
#203 = SURFACE_SIDE_STYLE( '', ( #276 ) );
#204 = EDGE_LOOP( '', ( #277, #278, #279, #280 ) );
#205 = AXIS2_PLACEMENT_3D( '', #281, #282, #283 );
#206 = PRE_DEFINED_MARKER( '' );
#207 = COLOUR_RGB( '', 0.689999997615810, 0.689999997615810, 0.689999997615810 );
#208 = SURFACE_SIDE_STYLE( '', ( #284 ) );
#209 = EDGE_LOOP( '', ( #285, #286, #287, #288 ) );
#210 = AXIS2_PLACEMENT_3D( '', #289, #290, #291 );
#211 = PRE_DEFINED_MARKER( '' );
#212 = COLOUR_RGB( '', 0.689999997615810, 0.689999997615810, 0.689999997615810 );
#213 = DRAUGHTING_PRE_DEFINED_CURVE_FONT( 'continuous' );
#214 = COLOUR_RGB( '', 0.689999997615810, 0.689999997615810, 0.689999997615810 );
#215 = CARTESIAN_POINT( '', ( 0.000000000000000, 2.42839439962977E-014, 198.300000000000 ) );
#216 = VECTOR( '', #292, 1.00000000000000 );
#217 = DRAUGHTING_PRE_DEFINED_CURVE_FONT( 'continuous' );
#218 = COLOUR_RGB( '', 0.689999997615810, 0.689999997615810, 0.689999997615810 );
#219 = AXIS2_PLACEMENT_3D( '', #293, #294, #295 );
#220 = SURFACE_SIDE_STYLE( '', ( #296 ) );
#221 = PRE_DEFINED_MARKER( '' );
#222 = COLOUR_RGB( '', 0.689999997615810, 0.689999997615810, 0.689999997615810 );
#223 = PRE_DEFINED_MARKER( '' );
#224 = COLOUR_RGB( '', 0.689999997615810, 0.689999997615810, 0.689999997615810 );
#225 = SURFACE_SIDE_STYLE( '', ( #297 ) );
#226 = EDGE_LOOP( '', ( #298, #299 ) );
#227 = EDGE_LOOP( '', ( #300, #301 ) );
#228 = AXIS2_PLACEMENT_3D( '', #302, #303, #304 );
#229 = DRAUGHTING_PRE_DEFINED_CURVE_FONT( 'continuous' );
#230 = COLOUR_RGB( '', 0.689999997615810, 0.689999997615810, 0.689999997615810 );
#231 = AXIS2_PLACEMENT_3D( '', #305, #306, #307 );
#232 = SURFACE_SIDE_STYLE( '', ( #308 ) );
#233 = EDGE_LOOP( '', ( #309, #310, #311, #312 ) );
#234 = AXIS2_PLACEMENT_3D( '', #313, #314, #315 );
#235 = DRAUGHTING_PRE_DEFINED_CURVE_FONT( 'continuous' );
#236 = COLOUR_RGB( '', 0.689999997615810, 0.689999997615810, 0.689999997615810 );
#237 = AXIS2_PLACEMENT_3D( '', #316, #317, #318 );
#238 = PRE_DEFINED_MARKER( '' );
#239 = COLOUR_RGB( '', 0.689999997615810, 0.689999997615810, 0.689999997615810 );
#240 = DRAUGHTING_PRE_DEFINED_CURVE_FONT( 'continuous' );
#241 = COLOUR_RGB( '', 0.689999997615810, 0.689999997615810, 0.689999997615810 );
#242 = CARTESIAN_POINT( '', ( 0.000000000000000, -2.42839439962977E-014, -198.300000000000 ) );
#243 = VECTOR( '', #319, 1.00000000000000 );
#244 = SURFACE_SIDE_STYLE( '', ( #320 ) );
#245 = EDGE_LOOP( '', ( #321, #322 ) );
#246 = EDGE_LOOP( '', ( #323, #324 ) );
#247 = AXIS2_PLACEMENT_3D( '', #325, #326, #327 );
#248 = DRAUGHTING_PRE_DEFINED_CURVE_FONT( 'continuous' );
#249 = COLOUR_RGB( '', 0.689999997615810, 0.689999997615810, 0.689999997615810 );
#250 = AXIS2_PLACEMENT_3D( '', #328, #329, #330 );
#251 = DRAUGHTING_PRE_DEFINED_CURVE_FONT( 'continuous' );
#252 = COLOUR_RGB( '', 0.689999997615810, 0.689999997615810, 0.689999997615810 );
#253 = CARTESIAN_POINT( '', ( 0.000000000000000, -2.75536429610035E-014, -225.000000000000 ) );
#254 = VECTOR( '', #331, 1.00000000000000 );
#255 = SURFACE_SIDE_STYLE( '', ( #332 ) );
#256 = EDGE_LOOP( '', ( #333, #334, #335, #336 ) );
#257 = AXIS2_PLACEMENT_3D( '', #337, #338, #339 );
#258 = PRE_DEFINED_MARKER( '' );
#259 = COLOUR_RGB( '', 0.689999997615810, 0.689999997615810, 0.689999997615810 );
#260 = DRAUGHTING_PRE_DEFINED_CURVE_FONT( 'continuous' );
#261 = COLOUR_RGB( '', 0.689999997615810, 0.689999997615810, 0.689999997615810 );
#262 = AXIS2_PLACEMENT_3D( '', #340, #341, #342 );
#263 = PRE_DEFINED_MARKER( '' );
#264 = COLOUR_RGB( '', 0.689999997615810, 0.689999997615810, 0.689999997615810 );
#266 = CARTESIAN_POINT( '', ( 5000.00000000000, 0.000000000000000, 0.000000000000000 ) );
#267 = DIRECTION( '', ( 1.00000000000000, 0.000000000000000, 0.000000000000000 ) );
#268 = DIRECTION( '', ( 0.000000000000000, 0.000000000000000, -1.00000000000000 ) );
#269 = DIRECTION( '', ( -1.00000000000000, -0.000000000000000, -0.000000000000000 ) );
#270 = CARTESIAN_POINT( '', ( 0.000000000000000, 0.000000000000000, 0.000000000000000 ) );
#271 = DIRECTION( '', ( 1.00000000000000, -0.000000000000000, 0.000000000000000 ) );
#272 = DIRECTION( '', ( 0.000000000000000, 0.000000000000000, -1.00000000000000 ) );
#273 = CARTESIAN_POINT( '', ( 0.000000000000000, 0.000000000000000, 0.000000000000000 ) );
#274 = DIRECTION( '', ( 1.00000000000000, -0.000000000000000, 0.000000000000000 ) );
#275 = DIRECTION( '', ( 0.000000000000000, 0.000000000000000, -1.00000000000000 ) );
#276 = SURFACE_STYLE_FILL_AREA( #343 );
#277 = ORIENTED_EDGE( '', *, *, #95, .F. );
#278 = ORIENTED_EDGE( '', *, *, #85, .T. );
#279 = ORIENTED_EDGE( '', *, *, #53, .F. );
#280 = ORIENTED_EDGE( '', *, *, #93, .T. );
#281 = CARTESIAN_POINT( '', ( 0.000000000000000, 0.000000000000000, 0.000000000000000 ) );
#282 = DIRECTION( '', ( -1.00000000000000, -0.000000000000000, -0.000000000000000 ) );
#283 = DIRECTION( '', ( 0.000000000000000, 0.000000000000000, -1.00000000000000 ) );
#284 = SURFACE_STYLE_FILL_AREA( #344 );
#285 = ORIENTED_EDGE( '', *, *, #89, .T. );
#286 = ORIENTED_EDGE( '', *, *, #81, .T. );
#287 = ORIENTED_EDGE( '', *, *, #69, .T. );
#288 = ORIENTED_EDGE( '', *, *, #57, .F. );
#289 = CARTESIAN_POINT( '', ( 0.000000000000000, 0.000000000000000, 0.000000000000000 ) );
#290 = DIRECTION( '', ( -1.00000000000000, -0.000000000000000, -0.000000000000000 ) );
#291 = DIRECTION( '', ( 0.000000000000000, 0.000000000000000, -1.00000000000000 ) );
#292 = DIRECTION( '', ( -1.00000000000000, 0.000000000000000, 0.000000000000000 ) );
#293 = CARTESIAN_POINT( '', ( 5000.00000000000, 0.000000000000000, 0.000000000000000 ) );
#294 = DIRECTION( '', ( -1.00000000000000, 0.000000000000000, 0.000000000000000 ) );
#295 = DIRECTION( '', ( 0.000000000000000, 0.000000000000000, -1.00000000000000 ) );
#296 = SURFACE_STYLE_FILL_AREA( #345 );
#297 = SURFACE_STYLE_FILL_AREA( #346 );
#298 = ORIENTED_EDGE( '', *, *, #85, .F. );
#299 = ORIENTED_EDGE( '', *, *, #55, .F. );
#300 = ORIENTED_EDGE( '', *, *, #57, .T. );
#301 = ORIENTED_EDGE( '', *, *, #101, .T. );
#302 = CARTESIAN_POINT( '', ( 0.000000000000000, 0.000000000000000, 0.000000000000000 ) );
#303 = DIRECTION( '', ( 1.00000000000000, 0.000000000000000, 0.000000000000000 ) );
#304 = DIRECTION( '', ( 0.000000000000000, 0.000000000000000, -1.00000000000000 ) );
#305 = CARTESIAN_POINT( '', ( 5000.00000000000, 0.000000000000000, 0.000000000000000 ) );
#306 = DIRECTION( '', ( 1.00000000000000, 0.000000000000000, 0.000000000000000 ) );
#307 = DIRECTION( '', ( 0.000000000000000, 0.000000000000000, -1.00000000000000 ) );
#308 = SURFACE_STYLE_FILL_AREA( #347 );
#309 = ORIENTED_EDGE( '', *, *, #95, .T. );
#310 = ORIENTED_EDGE( '', *, *, #71, .T. );
#311 = ORIENTED_EDGE( '', *, *, #53, .T. );
#312 = ORIENTED_EDGE( '', *, *, #55, .T. );
#313 = CARTESIAN_POINT( '', ( 0.000000000000000, 0.000000000000000, 0.000000000000000 ) );
#314 = DIRECTION( '', ( -1.00000000000000, -0.000000000000000, -0.000000000000000 ) );
#315 = DIRECTION( '', ( 0.000000000000000, 0.000000000000000, -1.00000000000000 ) );
#316 = CARTESIAN_POINT( '', ( 0.000000000000000, 0.000000000000000, 0.000000000000000 ) );
#317 = DIRECTION( '', ( 1.00000000000000, -0.000000000000000, 0.000000000000000 ) );
#318 = DIRECTION( '', ( 0.000000000000000, 0.000000000000000, -1.00000000000000 ) );
#319 = DIRECTION( '', ( 1.00000000000000, 0.000000000000000, 0.000000000000000 ) );
#320 = SURFACE_STYLE_FILL_AREA( #348 );
#321 = ORIENTED_EDGE( '', *, *, #71, .F. );
#322 = ORIENTED_EDGE( '', *, *, #93, .F. );
#323 = ORIENTED_EDGE( '', *, *, #81, .F. );
#324 = ORIENTED_EDGE( '', *, *, #51, .F. );
#325 = CARTESIAN_POINT( '', ( 5000.00000000000, 0.000000000000000, 0.000000000000000 ) );
#326 = DIRECTION( '', ( 1.00000000000000, 0.000000000000000, 0.000000000000000 ) );
#327 = DIRECTION( '', ( 0.000000000000000, 0.000000000000000, -1.00000000000000 ) );
#328 = CARTESIAN_POINT( '', ( 5000.00000000000, 0.000000000000000, 0.000000000000000 ) );
#329 = DIRECTION( '', ( -1.00000000000000, 0.000000000000000, 0.000000000000000 ) );
#330 = DIRECTION( '', ( 0.000000000000000, 0.000000000000000, -1.00000000000000 ) );
#331 = DIRECTION( '', ( 1.00000000000000, 0.000000000000000, 0.000000000000000 ) );
#332 = SURFACE_STYLE_FILL_AREA( #349 );
#333 = ORIENTED_EDGE( '', *, *, #89, .F. );
#334 = ORIENTED_EDGE( '', *, *, #101, .F. );
#335 = ORIENTED_EDGE( '', *, *, #69, .F. );
#336 = ORIENTED_EDGE( '', *, *, #51, .T. );
#337 = CARTESIAN_POINT( '', ( 0.000000000000000, 0.000000000000000, 0.000000000000000 ) );
#338 = DIRECTION( '', ( -1.00000000000000, -0.000000000000000, -0.000000000000000 ) );
#339 = DIRECTION( '', ( 0.000000000000000, 0.000000000000000, -1.00000000000000 ) );
#340 = CARTESIAN_POINT( '', ( 0.000000000000000, 0.000000000000000, 0.000000000000000 ) );
#341 = DIRECTION( '', ( 1.00000000000000, -0.000000000000000, 0.000000000000000 ) );
#342 = DIRECTION( '', ( 0.000000000000000, 0.000000000000000, -1.00000000000000 ) );
#343 = FILL_AREA_STYLE( '', ( #350 ) );
#344 = FILL_AREA_STYLE( '', ( #351 ) );
#345 = FILL_AREA_STYLE( '', ( #352 ) );
#346 = FILL_AREA_STYLE( '', ( #353 ) );
#347 = FILL_AREA_STYLE( '', ( #354 ) );
#348 = FILL_AREA_STYLE( '', ( #355 ) );
#349 = FILL_AREA_STYLE( '', ( #356 ) );
#350 = FILL_AREA_STYLE_COLOUR( '', #357 );
#351 = FILL_AREA_STYLE_COLOUR( '', #358 );
#352 = FILL_AREA_STYLE_COLOUR( '', #359 );
#353 = FILL_AREA_STYLE_COLOUR( '', #360 );
#354 = FILL_AREA_STYLE_COLOUR( '', #361 );
#355 = FILL_AREA_STYLE_COLOUR( '', #362 );
#356 = FILL_AREA_STYLE_COLOUR( '', #363 );
#357 = COLOUR_RGB( '', 0.689999997615810, 0.689999997615810, 0.689999997615810 );
#358 = COLOUR_RGB( '', 0.689999997615810, 0.689999997615810, 0.689999997615810 );
#359 = COLOUR_RGB( '', 0.689999997615810, 0.689999997615810, 0.689999997615810 );
#360 = COLOUR_RGB( '', 0.689999997615810, 0.689999997615810, 0.689999997615810 );
#361 = COLOUR_RGB( '', 0.689999997615810, 0.689999997615810, 0.689999997615810 );
#362 = COLOUR_RGB( '', 0.689999997615810, 0.689999997615810, 0.689999997615810 );
#363 = COLOUR_RGB( '', 0.689999997615810, 0.689999997615810, 0.689999997615810 );
ENDSEC;
END-ISO-10303-21;
