ISO-10303-21;
HEADER;
FILE_DESCRIPTION( ( 'STEP AP214' ), '1' );
FILE_NAME( 'p:/temp/worker_19/temp/exporttempdir_2020_351_NTYWj/format_0/22050009007(architecture400).stp', '2021-11-17T11:34:56', ( 'License CC BY-ND 4.0' ), ( 'CADENAS' ), ' ', 'PARTsolutions', ' ' );
FILE_SCHEMA( ( 'AUTOMOTIVE_DESIGN { 1 0 10303 214 1 1 1 1 }' ) );
ENDSEC;
DATA;
#1 = MECHANICAL_DESIGN_GEOMETRIC_PRESENTATION_REPRESENTATION( ' ', ( #10, #11, #12, #13, #14, #15, #16, #17, #18, #19, #20, #21 ), #6 );
#2 = PRODUCT_DEFINITION_CONTEXT( '', #22, 'design' );
#3 = APPLICATION_PROTOCOL_DEFINITION( 'international standard', 'automotive_design', 2001, #22 );
#4 = PRODUCT_CATEGORY_RELATIONSHIP( 'NONE', 'NONE', #23, #24 );
#5 = SHAPE_DEFINITION_REPRESENTATION( #25, #26 );
#6 =  ( GEOMETRIC_REPRESENTATION_CONTEXT( 3 )GLOBAL_UNCERTAINTY_ASSIGNED_CONTEXT( ( #29 ) )GLOBAL_UNIT_ASSIGNED_CONTEXT( ( #31, #32, #33 ) )REPRESENTATION_CONTEXT( 'NONE', 'WORKSPACE' ) );
#10 = STYLED_ITEM( '', ( #35 ), #36 );
#11 = STYLED_ITEM( '', ( #37 ), #38 );
#12 = STYLED_ITEM( '', ( #39 ), #40 );
#13 = STYLED_ITEM( '', ( #41 ), #42 );
#14 = STYLED_ITEM( '', ( #43 ), #44 );
#15 = STYLED_ITEM( '', ( #45 ), #46 );
#16 = STYLED_ITEM( '', ( #47 ), #48 );
#17 = STYLED_ITEM( '', ( #49 ), #50 );
#18 = STYLED_ITEM( '', ( #51 ), #52 );
#19 = STYLED_ITEM( '', ( #53 ), #54 );
#20 = STYLED_ITEM( '', ( #55 ), #56 );
#21 = STYLED_ITEM( '', ( #57 ), #58 );
#22 = APPLICATION_CONTEXT( 'core data for automotive mechanical design processes' );
#23 = PRODUCT_CATEGORY( 'part', 'NONE' );
#24 = PRODUCT_RELATED_PRODUCT_CATEGORY( 'detail', ' ', ( #59 ) );
#25 = PRODUCT_DEFINITION_SHAPE( 'NONE', 'NONE', #60 );
#26 = ADVANCED_BREP_SHAPE_REPRESENTATION( '_22050009007(architecture400)', ( #61, #62 ), #6 );
#29 = UNCERTAINTY_MEASURE_WITH_UNIT( LENGTH_MEASURE( 0.00100000000000000 ), #31, '', '' );
#31 =  ( CONVERSION_BASED_UNIT( 'MILLIMETRE', #65 )LENGTH_UNIT(  )NAMED_UNIT( #68 ) );
#32 =  ( NAMED_UNIT( #70 )PLANE_ANGLE_UNIT(  )SI_UNIT( $, .RADIAN. ) );
#33 =  ( NAMED_UNIT( #70 )SI_UNIT( $, .STERADIAN. )SOLID_ANGLE_UNIT(  ) );
#35 = PRESENTATION_STYLE_ASSIGNMENT( ( #76 ) );
#36 = ADVANCED_FACE( '', ( #77 ), #78, .F. );
#37 = PRESENTATION_STYLE_ASSIGNMENT( ( #79 ) );
#38 = ADVANCED_FACE( '', ( #80 ), #81, .T. );
#39 = PRESENTATION_STYLE_ASSIGNMENT( ( #82 ) );
#40 = ADVANCED_FACE( '', ( #83, #84 ), #85, .F. );
#41 = PRESENTATION_STYLE_ASSIGNMENT( ( #86 ) );
#42 = ADVANCED_FACE( '', ( #87, #88 ), #89, .T. );
#43 = PRESENTATION_STYLE_ASSIGNMENT( ( #90 ) );
#44 = ADVANCED_FACE( '', ( #91, #92 ), #93, .F. );
#45 = PRESENTATION_STYLE_ASSIGNMENT( ( #94 ) );
#46 = ADVANCED_FACE( '', ( #95, #96 ), #97, .F. );
#47 = PRESENTATION_STYLE_ASSIGNMENT( ( #98 ) );
#48 = ADVANCED_FACE( '', ( #99, #100 ), #101, .F. );
#49 = PRESENTATION_STYLE_ASSIGNMENT( ( #102 ) );
#50 = ADVANCED_FACE( '', ( #103, #104 ), #105, .T. );
#51 = PRESENTATION_STYLE_ASSIGNMENT( ( #106 ) );
#52 = ADVANCED_FACE( '', ( #107, #108 ), #109, .T. );
#53 = PRESENTATION_STYLE_ASSIGNMENT( ( #110 ) );
#54 = ADVANCED_FACE( '', ( #111, #112 ), #113, .T. );
#55 = PRESENTATION_STYLE_ASSIGNMENT( ( #114 ) );
#56 = ADVANCED_FACE( '', ( #115, #116 ), #117, .F. );
#57 = PRESENTATION_STYLE_ASSIGNMENT( ( #118 ) );
#58 = ADVANCED_FACE( '', ( #119, #120 ), #121, .F. );
#59 = PRODUCT( '_22050009007(architecture400)', '_22050009007(architecture400)', 'PART-_22050009007(architecture400)-DESC', ( #122 ) );
#60 = PRODUCT_DEFINITION( 'NONE', 'NONE', #123, #2 );
#61 = MANIFOLD_SOLID_BREP( '_22050009007(architecture400)', #124 );
#62 = AXIS2_PLACEMENT_3D( '', #125, #126, #127 );
#65 = LENGTH_MEASURE_WITH_UNIT( LENGTH_MEASURE( 1.00000000000000 ), #128 );
#68 = DIMENSIONAL_EXPONENTS( 1.00000000000000, 0.000000000000000, 0.000000000000000, 0.000000000000000, 0.000000000000000, 0.000000000000000, 0.000000000000000 );
#70 = DIMENSIONAL_EXPONENTS( 0.000000000000000, 0.000000000000000, 0.000000000000000, 0.000000000000000, 0.000000000000000, 0.000000000000000, 0.000000000000000 );
#76 = SURFACE_STYLE_USAGE( .BOTH., #129 );
#77 = FACE_OUTER_BOUND( '', #130, .T. );
#78 = SPHERICAL_SURFACE( '', #131, 41.1666666667000 );
#79 = SURFACE_STYLE_USAGE( .BOTH., #132 );
#80 = FACE_OUTER_BOUND( '', #133, .T. );
#81 = SPHERICAL_SURFACE( '', #134, 56.5000000000000 );
#82 = SURFACE_STYLE_USAGE( .BOTH., #135 );
#83 = FACE_OUTER_BOUND( '', #136, .T. );
#84 = FACE_OUTER_BOUND( '', #137, .T. );
#85 = CYLINDRICAL_SURFACE( '', #138, 45.0000000000000 );
#86 = SURFACE_STYLE_USAGE( .BOTH., #139 );
#87 = FACE_OUTER_BOUND( '', #140, .T. );
#88 = FACE_OUTER_BOUND( '', #141, .T. );
#89 = CYLINDRICAL_SURFACE( '', #142, 56.5000000000000 );
#90 = SURFACE_STYLE_USAGE( .BOTH., #143 );
#91 = FACE_BOUND( '', #144, .T. );
#92 = FACE_OUTER_BOUND( '', #145, .T. );
#93 = PLANE( '', #146 );
#94 = SURFACE_STYLE_USAGE( .BOTH., #147 );
#95 = FACE_OUTER_BOUND( '', #148, .T. );
#96 = FACE_OUTER_BOUND( '', #149, .T. );
#97 = CYLINDRICAL_SURFACE( '', #150, 41.1666666667000 );
#98 = SURFACE_STYLE_USAGE( .BOTH., #151 );
#99 = FACE_OUTER_BOUND( '', #152, .T. );
#100 = FACE_OUTER_BOUND( '', #153, .T. );
#101 = CYLINDRICAL_SURFACE( '', #154, 45.0000000000000 );
#102 = SURFACE_STYLE_USAGE( .BOTH., #155 );
#103 = FACE_BOUND( '', #156, .T. );
#104 = FACE_OUTER_BOUND( '', #157, .T. );
#105 = PLANE( '', #158 );
#106 = SURFACE_STYLE_USAGE( .BOTH., #159 );
#107 = FACE_OUTER_BOUND( '', #160, .T. );
#108 = FACE_OUTER_BOUND( '', #161, .T. );
#109 = CYLINDRICAL_SURFACE( '', #162, 56.5000000000000 );
#110 = SURFACE_STYLE_USAGE( .BOTH., #163 );
#111 = FACE_OUTER_BOUND( '', #164, .T. );
#112 = FACE_BOUND( '', #165, .T. );
#113 = PLANE( '', #166 );
#114 = SURFACE_STYLE_USAGE( .BOTH., #167 );
#115 = FACE_OUTER_BOUND( '', #168, .T. );
#116 = FACE_OUTER_BOUND( '', #169, .T. );
#117 = CYLINDRICAL_SURFACE( '', #170, 41.1666666667000 );
#118 = SURFACE_STYLE_USAGE( .BOTH., #171 );
#119 = FACE_BOUND( '', #172, .T. );
#120 = FACE_OUTER_BOUND( '', #173, .T. );
#121 = PLANE( '', #174 );
#122 = PRODUCT_CONTEXT( '', #22, 'mechanical' );
#123 = PRODUCT_DEFINITION_FORMATION_WITH_SPECIFIED_SOURCE( ' ', 'NONE', #59, .NOT_KNOWN. );
#124 = CLOSED_SHELL( '', ( #58, #52, #38, #42, #46, #50, #48, #44, #40, #54, #56, #36 ) );
#125 = CARTESIAN_POINT( '', ( 0.000000000000000, 0.000000000000000, 0.000000000000000 ) );
#126 = DIRECTION( '', ( 0.000000000000000, 0.000000000000000, 1.00000000000000 ) );
#127 = DIRECTION( '', ( 1.00000000000000, 0.000000000000000, 0.000000000000000 ) );
#128 =  ( LENGTH_UNIT(  )NAMED_UNIT( #68 )SI_UNIT( .MILLI., .METRE. ) );
#129 = SURFACE_SIDE_STYLE( '', ( #176 ) );
#130 = EDGE_LOOP( '', ( #177, #178 ) );
#131 = AXIS2_PLACEMENT_3D( '', #179, #180, #181 );
#132 = SURFACE_SIDE_STYLE( '', ( #182 ) );
#133 = EDGE_LOOP( '', ( #183, #184 ) );
#134 = AXIS2_PLACEMENT_3D( '', #185, #186, #187 );
#135 = SURFACE_SIDE_STYLE( '', ( #188 ) );
#136 = EDGE_LOOP( '', ( #189 ) );
#137 = EDGE_LOOP( '', ( #190 ) );
#138 = AXIS2_PLACEMENT_3D( '', #191, #192, #193 );
#139 = SURFACE_SIDE_STYLE( '', ( #194 ) );
#140 = EDGE_LOOP( '', ( #195 ) );
#141 = EDGE_LOOP( '', ( #196, #197 ) );
#142 = AXIS2_PLACEMENT_3D( '', #198, #199, #200 );
#143 = SURFACE_SIDE_STYLE( '', ( #201 ) );
#144 = EDGE_LOOP( '', ( #202 ) );
#145 = EDGE_LOOP( '', ( #203 ) );
#146 = AXIS2_PLACEMENT_3D( '', #204, #205, #206 );
#147 = SURFACE_SIDE_STYLE( '', ( #207 ) );
#148 = EDGE_LOOP( '', ( #208, #209 ) );
#149 = EDGE_LOOP( '', ( #210 ) );
#150 = AXIS2_PLACEMENT_3D( '', #211, #212, #213 );
#151 = SURFACE_SIDE_STYLE( '', ( #214 ) );
#152 = EDGE_LOOP( '', ( #215 ) );
#153 = EDGE_LOOP( '', ( #216 ) );
#154 = AXIS2_PLACEMENT_3D( '', #217, #218, #219 );
#155 = SURFACE_SIDE_STYLE( '', ( #220 ) );
#156 = EDGE_LOOP( '', ( #221 ) );
#157 = EDGE_LOOP( '', ( #222 ) );
#158 = AXIS2_PLACEMENT_3D( '', #223, #224, #225 );
#159 = SURFACE_SIDE_STYLE( '', ( #226 ) );
#160 = EDGE_LOOP( '', ( #227 ) );
#161 = EDGE_LOOP( '', ( #228, #229 ) );
#162 = AXIS2_PLACEMENT_3D( '', #230, #231, #232 );
#163 = SURFACE_SIDE_STYLE( '', ( #233 ) );
#164 = EDGE_LOOP( '', ( #234 ) );
#165 = EDGE_LOOP( '', ( #235 ) );
#166 = AXIS2_PLACEMENT_3D( '', #236, #237, #238 );
#167 = SURFACE_SIDE_STYLE( '', ( #239 ) );
#168 = EDGE_LOOP( '', ( #240 ) );
#169 = EDGE_LOOP( '', ( #241, #242 ) );
#170 = AXIS2_PLACEMENT_3D( '', #243, #244, #245 );
#171 = SURFACE_SIDE_STYLE( '', ( #246 ) );
#172 = EDGE_LOOP( '', ( #247 ) );
#173 = EDGE_LOOP( '', ( #248 ) );
#174 = AXIS2_PLACEMENT_3D( '', #249, #250, #251 );
#176 = SURFACE_STYLE_FILL_AREA( #252 );
#177 = ORIENTED_EDGE( '', *, *, #253, .F. );
#178 = ORIENTED_EDGE( '', *, *, #254, .T. );
#179 = CARTESIAN_POINT( '', ( 0.000000000000000, 0.000000000000000, 23.5000000000000 ) );
#180 = DIRECTION( '', ( 0.000000000000000, 0.000000000000000, 1.00000000000000 ) );
#181 = DIRECTION( '', ( 1.00000000000000, 0.000000000000000, 0.000000000000000 ) );
#182 = SURFACE_STYLE_FILL_AREA( #255 );
#183 = ORIENTED_EDGE( '', *, *, #256, .T. );
#184 = ORIENTED_EDGE( '', *, *, #257, .F. );
#185 = CARTESIAN_POINT( '', ( 0.000000000000000, 0.000000000000000, 23.5000000000000 ) );
#186 = DIRECTION( '', ( 0.000000000000000, 0.000000000000000, 1.00000000000000 ) );
#187 = DIRECTION( '', ( 1.00000000000000, 0.000000000000000, 0.000000000000000 ) );
#188 = SURFACE_STYLE_FILL_AREA( #258 );
#189 = ORIENTED_EDGE( '', *, *, #259, .T. );
#190 = ORIENTED_EDGE( '', *, *, #260, .F. );
#191 = CARTESIAN_POINT( '', ( 43.1335136523794, 0.000000000000000, 66.6335136523794 ) );
#192 = DIRECTION( '', ( -0.707106781186548, 0.000000000000000, -0.707106781186548 ) );
#193 = DIRECTION( '', ( 0.707106781186547, 0.000000000000000, -0.707106781186547 ) );
#194 = SURFACE_STYLE_FILL_AREA( #261 );
#195 = ORIENTED_EDGE( '', *, *, #262, .F. );
#196 = ORIENTED_EDGE( '', *, *, #257, .T. );
#197 = ORIENTED_EDGE( '', *, *, #263, .T. );
#198 = CARTESIAN_POINT( '', ( 42.4264068711928, 0.000000000000000, 65.9264068711929 ) );
#199 = DIRECTION( '', ( -0.707106781186547, 0.000000000000000, -0.707106781186548 ) );
#200 = DIRECTION( '', ( 0.707106781186548, 0.000000000000000, -0.707106781186547 ) );
#201 = SURFACE_STYLE_FILL_AREA( #264 );
#202 = ORIENTED_EDGE( '', *, *, #259, .F. );
#203 = ORIENTED_EDGE( '', *, *, #262, .T. );
#204 = CARTESIAN_POINT( '', ( 2.47487373415293, 0.000000000000000, 105.877940008233 ) );
#205 = DIRECTION( '', ( -0.707106781186547, 0.000000000000000, -0.707106781186548 ) );
#206 = DIRECTION( '', ( -0.707106781186548, 0.000000000000000, 0.707106781186547 ) );
#207 = SURFACE_STYLE_FILL_AREA( #265 );
#208 = ORIENTED_EDGE( '', *, *, #266, .T. );
#209 = ORIENTED_EDGE( '', *, *, #253, .T. );
#210 = ORIENTED_EDGE( '', *, *, #267, .F. );
#211 = CARTESIAN_POINT( '', ( 0.000000000000000, 0.000000000000000, 64.6666666666667 ) );
#212 = DIRECTION( '', ( -0.000000000000000, 0.000000000000000, -1.00000000000000 ) );
#213 = DIRECTION( '', ( 1.00000000000000, 0.000000000000000, 0.000000000000000 ) );
#214 = SURFACE_STYLE_FILL_AREA( #268 );
#215 = ORIENTED_EDGE( '', *, *, #269, .T. );
#216 = ORIENTED_EDGE( '', *, *, #270, .T. );
#217 = CARTESIAN_POINT( '', ( 0.000000000000000, 0.000000000000000, 64.6666666666667 ) );
#218 = DIRECTION( '', ( -0.000000000000000, 0.000000000000000, -1.00000000000000 ) );
#219 = DIRECTION( '', ( 1.00000000000000, 0.000000000000000, 0.000000000000000 ) );
#220 = SURFACE_STYLE_FILL_AREA( #271 );
#221 = ORIENTED_EDGE( '', *, *, #267, .T. );
#222 = ORIENTED_EDGE( '', *, *, #269, .F. );
#223 = CARTESIAN_POINT( '', ( -45.0000000000000, 0.000000000000000, 3.46944695195361E-15 ) );
#224 = DIRECTION( '', ( 0.000000000000000, 0.000000000000000, -1.00000000000000 ) );
#225 = DIRECTION( '', ( -1.00000000000000, 0.000000000000000, 0.000000000000000 ) );
#226 = SURFACE_STYLE_FILL_AREA( #272 );
#227 = ORIENTED_EDGE( '', *, *, #273, .T. );
#228 = ORIENTED_EDGE( '', *, *, #263, .F. );
#229 = ORIENTED_EDGE( '', *, *, #256, .F. );
#230 = CARTESIAN_POINT( '', ( 0.000000000000000, 0.000000000000000, 23.5000000000000 ) );
#231 = DIRECTION( '', ( 0.000000000000000, -0.000000000000000, 1.00000000000000 ) );
#232 = DIRECTION( '', ( -1.00000000000000, 0.000000000000000, 0.000000000000000 ) );
#233 = SURFACE_STYLE_FILL_AREA( #274 );
#234 = ORIENTED_EDGE( '', *, *, #260, .T. );
#235 = ORIENTED_EDGE( '', *, *, #275, .F. );
#236 = CARTESIAN_POINT( '', ( -12.4922198009623, 0.000000000000000, 69.2262385167301 ) );
#237 = DIRECTION( '', ( 0.707106781186548, -0.000000000000000, 0.707106781186548 ) );
#238 = DIRECTION( '', ( 0.707106781186547, 0.000000000000000, -0.707106781186547 ) );
#239 = SURFACE_STYLE_FILL_AREA( #276 );
#240 = ORIENTED_EDGE( '', *, *, #275, .T. );
#241 = ORIENTED_EDGE( '', *, *, #266, .F. );
#242 = ORIENTED_EDGE( '', *, *, #254, .F. );
#243 = CARTESIAN_POINT( '', ( 43.1335136523794, 0.000000000000000, 66.6335136523794 ) );
#244 = DIRECTION( '', ( -0.707106781186548, 0.000000000000000, -0.707106781186548 ) );
#245 = DIRECTION( '', ( 0.707106781186547, 0.000000000000000, -0.707106781186547 ) );
#246 = SURFACE_STYLE_FILL_AREA( #277 );
#247 = ORIENTED_EDGE( '', *, *, #270, .F. );
#248 = ORIENTED_EDGE( '', *, *, #273, .F. );
#249 = CARTESIAN_POINT( '', ( 0.000000000000000, 0.000000000000000, -36.5000000000000 ) );
#250 = DIRECTION( '', ( 0.000000000000000, 0.000000000000000, 1.00000000000000 ) );
#251 = DIRECTION( '', ( 1.00000000000000, 0.000000000000000, -0.000000000000000 ) );
#252 = FILL_AREA_STYLE( '', ( #278 ) );
#253 = EDGE_CURVE( '', #279, #280, #281, .T. );
#254 = EDGE_CURVE( '', #279, #280, #282, .T. );
#255 = FILL_AREA_STYLE( '', ( #283 ) );
#256 = EDGE_CURVE( '', #284, #285, #286, .T. );
#257 = EDGE_CURVE( '', #284, #285, #287, .T. );
#258 = FILL_AREA_STYLE( '', ( #288 ) );
#259 = EDGE_CURVE( '', #289, #289, #290, .F. );
#260 = EDGE_CURVE( '', #291, #291, #292, .T. );
#261 = FILL_AREA_STYLE( '', ( #293 ) );
#262 = EDGE_CURVE( '', #294, #294, #295, .T. );
#263 = EDGE_CURVE( '', #285, #284, #296, .F. );
#264 = FILL_AREA_STYLE( '', ( #297 ) );
#265 = FILL_AREA_STYLE( '', ( #298 ) );
#266 = EDGE_CURVE( '', #280, #279, #299, .T. );
#267 = EDGE_CURVE( '', #300, #300, #301, .T. );
#268 = FILL_AREA_STYLE( '', ( #302 ) );
#269 = EDGE_CURVE( '', #303, #303, #304, .T. );
#270 = EDGE_CURVE( '', #305, #305, #306, .F. );
#271 = FILL_AREA_STYLE( '', ( #307 ) );
#272 = FILL_AREA_STYLE( '', ( #308 ) );
#273 = EDGE_CURVE( '', #309, #309, #310, .T. );
#274 = FILL_AREA_STYLE( '', ( #311 ) );
#275 = EDGE_CURVE( '', #312, #312, #313, .T. );
#276 = FILL_AREA_STYLE( '', ( #314 ) );
#277 = FILL_AREA_STYLE( '', ( #315 ) );
#278 = FILL_AREA_STYLE_COLOUR( '', #316 );
#279 = VERTEX_POINT( '', #317 );
#280 = VERTEX_POINT( '', #318 );
#281 = CIRCLE( '', #319, 41.1666666667000 );
#282 = CIRCLE( '', #320, 41.1666666667000 );
#283 = FILL_AREA_STYLE_COLOUR( '', #321 );
#284 = VERTEX_POINT( '', #322 );
#285 = VERTEX_POINT( '', #323 );
#286 = CIRCLE( '', #324, 56.5000000000000 );
#287 = CIRCLE( '', #325, 56.5000000000000 );
#288 = FILL_AREA_STYLE_COLOUR( '', #326 );
#289 = VERTEX_POINT( '', #327 );
#290 = CIRCLE( '', #328, 45.0000000000000 );
#291 = VERTEX_POINT( '', #329 );
#292 = CIRCLE( '', #330, 45.0000000000000 );
#293 = FILL_AREA_STYLE_COLOUR( '', #331 );
#294 = VERTEX_POINT( '', #332 );
#295 = CIRCLE( '', #333, 56.5000000000000 );
#296 = ELLIPSE( '', #334, 61.1551593165000, 56.5000000000000 );
#297 = FILL_AREA_STYLE_COLOUR( '', #335 );
#298 = FILL_AREA_STYLE_COLOUR( '', #336 );
#299 = ELLIPSE( '', #337, 44.5584789120000, 41.1666666667000 );
#300 = VERTEX_POINT( '', #338 );
#301 = CIRCLE( '', #339, 41.1666666667000 );
#302 = FILL_AREA_STYLE_COLOUR( '', #340 );
#303 = VERTEX_POINT( '', #341 );
#304 = CIRCLE( '', #342, 45.0000000000000 );
#305 = VERTEX_POINT( '', #343 );
#306 = CIRCLE( '', #344, 45.0000000000000 );
#307 = FILL_AREA_STYLE_COLOUR( '', #345 );
#308 = FILL_AREA_STYLE_COLOUR( '', #346 );
#309 = VERTEX_POINT( '', #347 );
#310 = CIRCLE( '', #348, 56.5000000000000 );
#311 = FILL_AREA_STYLE_COLOUR( '', #349 );
#312 = VERTEX_POINT( '', #350 );
#313 = CIRCLE( '', #351, 41.1666666667000 );
#314 = FILL_AREA_STYLE_COLOUR( '', #352 );
#315 = FILL_AREA_STYLE_COLOUR( '', #353 );
#316 = COLOUR_RGB( '', 0.689999997600000, 0.689999997600000, 0.689999997600000 );
#317 = CARTESIAN_POINT( '', ( -3.21540258063856E-15, 41.1666666666667, 23.5000000000000 ) );
#318 = CARTESIAN_POINT( '', ( -5.92271641864701E-15, -41.1666666666667, 23.5000000000000 ) );
#319 = AXIS2_PLACEMENT_3D( '', #354, #355, #356 );
#320 = AXIS2_PLACEMENT_3D( '', #357, #358, #359 );
#321 = COLOUR_RGB( '', 0.689999997600000, 0.689999997600000, 0.689999997600000 );
#322 = CARTESIAN_POINT( '', ( -8.37598588534041E-15, 56.5000000000000, 23.5000000000000 ) );
#323 = CARTESIAN_POINT( '', ( -1.77065077551264E-14, -56.5000000000000, 23.5000000000000 ) );
#324 = AXIS2_PLACEMENT_3D( '', #360, #361, #362 );
#325 = AXIS2_PLACEMENT_3D( '', #363, #364, #365 );
#326 = COLOUR_RGB( '', 0.689999997600000, 0.689999997600000, 0.689999997600000 );
#327 = CARTESIAN_POINT( '', ( 10.6066017177982, 0.000000000000000, 97.7462120245875 ) );
#328 = AXIS2_PLACEMENT_3D( '', #366, #367, #368 );
#329 = CARTESIAN_POINT( '', ( 48.4368145112785, 0.000000000000000, 8.29720420448922 ) );
#330 = AXIS2_PLACEMENT_3D( '', #369, #370, #371 );
#331 = COLOUR_RGB( '', 0.689999997600000, 0.689999997600000, 0.689999997600000 );
#332 = CARTESIAN_POINT( '', ( 82.3779400082328, 0.000000000000000, 25.9748737341530 ) );
#333 = AXIS2_PLACEMENT_3D( '', #372, #373, #374 );
#334 = AXIS2_PLACEMENT_3D( '', #375, #376, #377 );
#335 = COLOUR_RGB( '', 0.689999997600000, 0.689999997600000, 0.689999997600000 );
#336 = COLOUR_RGB( '', 0.689999997600000, 0.689999997600000, 0.689999997600000 );
#337 = AXIS2_PLACEMENT_3D( '', #378, #379, #380 );
#338 = CARTESIAN_POINT( '', ( 41.1666666666667, 0.000000000000000, 0.000000000000000 ) );
#339 = AXIS2_PLACEMENT_3D( '', #381, #382, #383 );
#340 = COLOUR_RGB( '', 0.689999997600000, 0.689999997600000, 0.689999997600000 );
#341 = CARTESIAN_POINT( '', ( 45.0000000000000, 0.000000000000000, 1.38777878078145E-14 ) );
#342 = AXIS2_PLACEMENT_3D( '', #384, #385, #386 );
#343 = CARTESIAN_POINT( '', ( 45.0000000000000, 0.000000000000000, -36.5000000000000 ) );
#344 = AXIS2_PLACEMENT_3D( '', #387, #388, #389 );
#345 = COLOUR_RGB( '', 0.689999997600000, 0.689999997600000, 0.689999997600000 );
#346 = COLOUR_RGB( '', 0.689999997600000, 0.689999997600000, 0.689999997600000 );
#347 = CARTESIAN_POINT( '', ( 56.5000000000000, 0.000000000000000, -36.5000000000000 ) );
#348 = AXIS2_PLACEMENT_3D( '', #390, #391, #392 );
#349 = COLOUR_RGB( '', 0.689999997600000, 0.689999997600000, 0.689999997600000 );
#350 = CARTESIAN_POINT( '', ( 45.7262385167301, 0.000000000000000, 11.0077801990376 ) );
#351 = AXIS2_PLACEMENT_3D( '', #393, #394, #395 );
#352 = COLOUR_RGB( '', 0.689999997600000, 0.689999997600000, 0.689999997600000 );
#353 = COLOUR_RGB( '', 0.689999997600000, 0.689999997600000, 0.689999997600000 );
#354 = CARTESIAN_POINT( '', ( 0.000000000000000, 0.000000000000000, 23.5000000000000 ) );
#355 = DIRECTION( '', ( 0.000000000000000, -0.000000000000000, 1.00000000000000 ) );
#356 = DIRECTION( '', ( 1.00000000000000, 0.000000000000000, 0.000000000000000 ) );
#357 = CARTESIAN_POINT( '', ( -3.46944695195361E-15, 0.000000000000000, 23.5000000000000 ) );
#358 = DIRECTION( '', ( 0.707106781186548, -0.000000000000000, 0.707106781186548 ) );
#359 = DIRECTION( '', ( 0.707106781186547, 0.000000000000000, -0.707106781186547 ) );
#360 = CARTESIAN_POINT( '', ( 0.000000000000000, 0.000000000000000, 23.5000000000000 ) );
#361 = DIRECTION( '', ( 0.000000000000000, 0.000000000000000, 1.00000000000000 ) );
#362 = DIRECTION( '', ( 1.00000000000000, 0.000000000000000, 0.000000000000000 ) );
#363 = CARTESIAN_POINT( '', ( -3.46944695195361E-15, 0.000000000000000, 23.5000000000000 ) );
#364 = DIRECTION( '', ( 0.707106781186547, -0.000000000000000, 0.707106781186548 ) );
#365 = DIRECTION( '', ( 0.707106781186548, 0.000000000000000, -0.707106781186547 ) );
#366 = CARTESIAN_POINT( '', ( 42.4264068711929, 0.000000000000000, 65.9264068711929 ) );
#367 = DIRECTION( '', ( -0.707106781186547, 0.000000000000000, -0.707106781186548 ) );
#368 = DIRECTION( '', ( -0.707106781186548, 0.000000000000000, 0.707106781186547 ) );
#369 = CARTESIAN_POINT( '', ( 16.6170093578839, 0.000000000000000, 40.1170093578839 ) );
#370 = DIRECTION( '', ( 0.707106781186548, -0.000000000000000, 0.707106781186548 ) );
#371 = DIRECTION( '', ( 0.707106781186547, 0.000000000000000, -0.707106781186547 ) );
#372 = CARTESIAN_POINT( '', ( 42.4264068711928, 0.000000000000000, 65.9264068711929 ) );
#373 = DIRECTION( '', ( 0.707106781186548, -0.000000000000000, 0.707106781186548 ) );
#374 = DIRECTION( '', ( 0.707106781186548, 0.000000000000000, -0.707106781186548 ) );
#375 = CARTESIAN_POINT( '', ( -6.93889390390723E-15, 0.000000000000000, 23.5000000000000 ) );
#376 = DIRECTION( '', ( -0.382683432365090, 0.000000000000000, -0.923879532511287 ) );
#377 = DIRECTION( '', ( 0.923879532511287, 0.000000000000000, -0.382683432365090 ) );
#378 = CARTESIAN_POINT( '', ( -3.46944695195361E-15, 0.000000000000000, 23.5000000000000 ) );
#379 = DIRECTION( '', ( 0.382683432365090, 0.000000000000000, 0.923879532511287 ) );
#380 = DIRECTION( '', ( -0.923879532511287, 0.000000000000000, 0.382683432365090 ) );
#381 = CARTESIAN_POINT( '', ( 0.000000000000000, 0.000000000000000, 0.000000000000000 ) );
#382 = DIRECTION( '', ( 0.000000000000000, -0.000000000000000, 1.00000000000000 ) );
#383 = DIRECTION( '', ( 1.00000000000000, 0.000000000000000, 0.000000000000000 ) );
#384 = CARTESIAN_POINT( '', ( 0.000000000000000, 0.000000000000000, 1.38777878078145E-14 ) );
#385 = DIRECTION( '', ( 0.000000000000000, -0.000000000000000, 1.00000000000000 ) );
#386 = DIRECTION( '', ( 1.00000000000000, 0.000000000000000, 0.000000000000000 ) );
#387 = CARTESIAN_POINT( '', ( 0.000000000000000, 0.000000000000000, -36.5000000000000 ) );
#388 = DIRECTION( '', ( 0.000000000000000, 0.000000000000000, 1.00000000000000 ) );
#389 = DIRECTION( '', ( 1.00000000000000, 0.000000000000000, -0.000000000000000 ) );
#390 = CARTESIAN_POINT( '', ( 0.000000000000000, 0.000000000000000, -36.5000000000000 ) );
#391 = DIRECTION( '', ( 0.000000000000000, 0.000000000000000, 1.00000000000000 ) );
#392 = DIRECTION( '', ( 1.00000000000000, 0.000000000000000, 0.000000000000000 ) );
#393 = CARTESIAN_POINT( '', ( 16.6170093578839, 0.000000000000000, 40.1170093578839 ) );
#394 = DIRECTION( '', ( 0.707106781186548, -0.000000000000000, 0.707106781186548 ) );
#395 = DIRECTION( '', ( 0.707106781186548, 0.000000000000000, -0.707106781186548 ) );
ENDSEC;
END-ISO-10303-21;
