ISO-10303-21;
HEADER;
FILE_DESCRIPTION( ( '' ), '1' );
FILE_NAME( '//se01002/users/anro/AGRU_25705050000_PE_100_schwarz_Rohr__5m_500X8_0__Ventilation_05.stp', '2017-12-11T10:04:42', ( '' ), ( '' ), ' ', ' ', ' ' );
FILE_SCHEMA( ( 'automotive_design' ) );
ENDSEC;
DATA;
#1 = MECHANICAL_DESIGN_GEOMETRIC_PRESENTATION_REPRESENTATION( ' ', ( #10, #11, #12, #13, #14, #15, #16, #17, #18, #19, #20, #21, #22, #23, #24, #25, #26, #27, #28, #29, #30, #31, #32, #33, #34, #35, #36 ), #6 );
#2 = PRODUCT_DEFINITION_CONTEXT( '', #37, 'design' );
#3 = APPLICATION_PROTOCOL_DEFINITION( 'INTERNATIONAL STANDARD', 'automotive_design', 1994, #37 );
#4 = PRODUCT_CATEGORY_RELATIONSHIP( 'NONE', 'NONE', #38, #39 );
#5 = SHAPE_DEFINITION_REPRESENTATION( #40, #41 );
#6 =  ( GEOMETRIC_REPRESENTATION_CONTEXT( 3 )GLOBAL_UNCERTAINTY_ASSIGNED_CONTEXT( ( #44 ) )GLOBAL_UNIT_ASSIGNED_CONTEXT( ( #46, #47, #48 ) )REPRESENTATION_CONTEXT( 'NONE', 'WORKSPACE' ) );
#10 = STYLED_ITEM( '', ( #50 ), #51 );
#11 = STYLED_ITEM( '', ( #52 ), #53 );
#12 = STYLED_ITEM( '', ( #54 ), #55 );
#13 = STYLED_ITEM( '', ( #56 ), #57 );
#14 = STYLED_ITEM( '', ( #58 ), #59 );
#15 = STYLED_ITEM( '', ( #60 ), #61 );
#16 = STYLED_ITEM( '', ( #62 ), #63 );
#17 = STYLED_ITEM( '', ( #64 ), #65 );
#18 = STYLED_ITEM( '', ( #66 ), #67 );
#19 = STYLED_ITEM( '', ( #68 ), #69 );
#20 = STYLED_ITEM( '', ( #70 ), #71 );
#21 = STYLED_ITEM( '', ( #72 ), #73 );
#22 = STYLED_ITEM( '', ( #74 ), #75 );
#23 = STYLED_ITEM( '', ( #76 ), #77 );
#24 = STYLED_ITEM( '', ( #78 ), #79 );
#25 = STYLED_ITEM( '', ( #80 ), #81 );
#26 = STYLED_ITEM( '', ( #82 ), #83 );
#27 = STYLED_ITEM( '', ( #84 ), #85 );
#28 = STYLED_ITEM( '', ( #86 ), #87 );
#29 = STYLED_ITEM( '', ( #88 ), #89 );
#30 = STYLED_ITEM( '', ( #90 ), #91 );
#31 = STYLED_ITEM( '', ( #92 ), #93 );
#32 = STYLED_ITEM( '', ( #94 ), #95 );
#33 = STYLED_ITEM( '', ( #96 ), #97 );
#34 = STYLED_ITEM( '', ( #98 ), #99 );
#35 = STYLED_ITEM( '', ( #100 ), #101 );
#36 = STYLED_ITEM( '', ( #102 ), #103 );
#37 = APPLICATION_CONTEXT( ' ' );
#38 = PRODUCT_CATEGORY( 'part', 'NONE' );
#39 = PRODUCT_RELATED_PRODUCT_CATEGORY( 'detail', ' ', ( #104 ) );
#40 = PRODUCT_DEFINITION_SHAPE( 'NONE', 'NONE', #105 );
#41 = ADVANCED_BREP_SHAPE_REPRESENTATION( '1', ( #79, #106 ), #6 );
#44 = UNCERTAINTY_MEASURE_WITH_UNIT( LENGTH_MEASURE( 1.00000000000000E-006 ), #46, '', '' );
#46 =  ( CONVERSION_BASED_UNIT( 'MILLIMETRE', #109 )LENGTH_UNIT(  )NAMED_UNIT( #112 ) );
#47 =  ( NAMED_UNIT( #114 )PLANE_ANGLE_UNIT(  )SI_UNIT( $, .RADIAN. ) );
#48 =  ( NAMED_UNIT( #114 )SOLID_ANGLE_UNIT(  )SI_UNIT( $, .STERADIAN. ) );
#50 = PRESENTATION_STYLE_ASSIGNMENT( ( #120 ) );
#51 = ADVANCED_FACE( '', ( #121, #122 ), #123, .T. );
#52 = PRESENTATION_STYLE_ASSIGNMENT( ( #124 ) );
#53 = ADVANCED_FACE( '', ( #125 ), #126, .F. );
#54 = PRESENTATION_STYLE_ASSIGNMENT( ( #127 ) );
#55 = VERTEX_POINT( '', #128 );
#56 = PRESENTATION_STYLE_ASSIGNMENT( ( #129 ) );
#57 = ADVANCED_FACE( '', ( #130 ), #131, .T. );
#58 = PRESENTATION_STYLE_ASSIGNMENT( ( #132 ) );
#59 = ADVANCED_FACE( '', ( #133 ), #134, .F. );
#60 = PRESENTATION_STYLE_ASSIGNMENT( ( #135 ) );
#61 = ADVANCED_FACE( '', ( #136 ), #137, .T. );
#62 = PRESENTATION_STYLE_ASSIGNMENT( ( #138 ) );
#63 = VERTEX_POINT( '', #139 );
#64 = PRESENTATION_STYLE_ASSIGNMENT( ( #140 ) );
#65 = EDGE_CURVE( '', #91, #99, #141, .T. );
#66 = PRESENTATION_STYLE_ASSIGNMENT( ( #142 ) );
#67 = EDGE_CURVE( '', #55, #97, #143, .T. );
#68 = PRESENTATION_STYLE_ASSIGNMENT( ( #144 ) );
#69 = EDGE_CURVE( '', #97, #55, #145, .T. );
#70 = PRESENTATION_STYLE_ASSIGNMENT( ( #146 ) );
#71 = EDGE_CURVE( '', #73, #63, #147, .T. );
#72 = PRESENTATION_STYLE_ASSIGNMENT( ( #148 ) );
#73 = VERTEX_POINT( '', #149 );
#74 = PRESENTATION_STYLE_ASSIGNMENT( ( #150 ) );
#75 = EDGE_CURVE( '', #89, #93, #151, .T. );
#76 = PRESENTATION_STYLE_ASSIGNMENT( ( #152 ) );
#77 = EDGE_CURVE( '', #63, #91, #153, .T. );
#78 = PRESENTATION_STYLE_ASSIGNMENT( ( #154 ) );
#79 = MANIFOLD_SOLID_BREP( '1', #155 );
#80 = PRESENTATION_STYLE_ASSIGNMENT( ( #156 ) );
#81 = EDGE_CURVE( '', #55, #93, #157, .T. );
#82 = PRESENTATION_STYLE_ASSIGNMENT( ( #158 ) );
#83 = EDGE_CURVE( '', #99, #73, #159, .T. );
#84 = PRESENTATION_STYLE_ASSIGNMENT( ( #160 ) );
#85 = EDGE_CURVE( '', #93, #89, #161, .T. );
#86 = PRESENTATION_STYLE_ASSIGNMENT( ( #162 ) );
#87 = EDGE_CURVE( '', #73, #99, #163, .T. );
#88 = PRESENTATION_STYLE_ASSIGNMENT( ( #164 ) );
#89 = VERTEX_POINT( '', #165 );
#90 = PRESENTATION_STYLE_ASSIGNMENT( ( #166 ) );
#91 = VERTEX_POINT( '', #167 );
#92 = PRESENTATION_STYLE_ASSIGNMENT( ( #168 ) );
#93 = VERTEX_POINT( '', #169 );
#94 = PRESENTATION_STYLE_ASSIGNMENT( ( #170 ) );
#95 = EDGE_CURVE( '', #91, #63, #171, .T. );
#96 = PRESENTATION_STYLE_ASSIGNMENT( ( #172 ) );
#97 = VERTEX_POINT( '', #173 );
#98 = PRESENTATION_STYLE_ASSIGNMENT( ( #174 ) );
#99 = VERTEX_POINT( '', #175 );
#100 = PRESENTATION_STYLE_ASSIGNMENT( ( #176 ) );
#101 = ADVANCED_FACE( '', ( #177, #178 ), #179, .F. );
#102 = PRESENTATION_STYLE_ASSIGNMENT( ( #180 ) );
#103 = EDGE_CURVE( '', #89, #97, #181, .T. );
#104 = PRODUCT( '1', '1', 'PART-1-DESC', ( #182 ) );
#105 = PRODUCT_DEFINITION( 'NONE', 'NONE', #183, #2 );
#106 = AXIS2_PLACEMENT_3D( '', #184, #185, #186 );
#109 = LENGTH_MEASURE_WITH_UNIT( LENGTH_MEASURE( 1.00000000000000 ), #187 );
#112 = DIMENSIONAL_EXPONENTS( 1.00000000000000, 0.000000000000000, 0.000000000000000, 0.000000000000000, 0.000000000000000, 0.000000000000000, 0.000000000000000 );
#114 = DIMENSIONAL_EXPONENTS( 0.000000000000000, 0.000000000000000, 0.000000000000000, 0.000000000000000, 0.000000000000000, 0.000000000000000, 0.000000000000000 );
#120 = SURFACE_STYLE_USAGE( .BOTH., #188 );
#121 = FACE_OUTER_BOUND( '', #189, .T. );
#122 = FACE_BOUND( '', #190, .T. );
#123 = PLANE( '', #191 );
#124 = SURFACE_STYLE_USAGE( .BOTH., #192 );
#125 = FACE_OUTER_BOUND( '', #193, .T. );
#126 = CYLINDRICAL_SURFACE( '', #194, 242.000000000000 );
#127 = POINT_STYLE( ' ', #195, POSITIVE_LENGTH_MEASURE( 1.00000000000000E-006 ), #196 );
#128 = CARTESIAN_POINT( '', ( 0.000000000000000, 0.000000000000000, -250.000000000000 ) );
#129 = SURFACE_STYLE_USAGE( .BOTH., #197 );
#130 = FACE_OUTER_BOUND( '', #198, .T. );
#131 = CYLINDRICAL_SURFACE( '', #199, 250.000000000000 );
#132 = SURFACE_STYLE_USAGE( .BOTH., #200 );
#133 = FACE_OUTER_BOUND( '', #201, .T. );
#134 = CYLINDRICAL_SURFACE( '', #202, 242.000000000000 );
#135 = SURFACE_STYLE_USAGE( .BOTH., #203 );
#136 = FACE_OUTER_BOUND( '', #204, .T. );
#137 = CYLINDRICAL_SURFACE( '', #205, 250.000000000000 );
#138 = POINT_STYLE( ' ', #206, POSITIVE_LENGTH_MEASURE( 1.00000000000000E-006 ), #207 );
#139 = CARTESIAN_POINT( '', ( 5000.00000000000, 0.000000000000000, -242.000000000000 ) );
#140 = CURVE_STYLE( '', #208, POSITIVE_LENGTH_MEASURE( 1.00000000000000E-006 ), #209 );
#141 = LINE( '', #210, #211 );
#142 = CURVE_STYLE( '', #212, POSITIVE_LENGTH_MEASURE( 1.00000000000000E-006 ), #213 );
#143 = CIRCLE( '', #214, 250.000000000000 );
#144 = CURVE_STYLE( '', #215, POSITIVE_LENGTH_MEASURE( 1.00000000000000E-006 ), #216 );
#145 = CIRCLE( '', #217, 250.000000000000 );
#146 = CURVE_STYLE( '', #218, POSITIVE_LENGTH_MEASURE( 1.00000000000000E-006 ), #219 );
#147 = LINE( '', #220, #221 );
#148 = POINT_STYLE( ' ', #222, POSITIVE_LENGTH_MEASURE( 1.00000000000000E-006 ), #223 );
#149 = CARTESIAN_POINT( '', ( 0.000000000000000, 0.000000000000000, -242.000000000000 ) );
#150 = CURVE_STYLE( '', #224, POSITIVE_LENGTH_MEASURE( 1.00000000000000E-006 ), #225 );
#151 = CIRCLE( '', #226, 250.000000000000 );
#152 = CURVE_STYLE( '', #227, POSITIVE_LENGTH_MEASURE( 1.00000000000000E-006 ), #228 );
#153 = CIRCLE( '', #229, 242.000000000000 );
#154 = SURFACE_STYLE_USAGE( .BOTH., #230 );
#155 = CLOSED_SHELL( '', ( #61, #53, #59, #57, #51, #101 ) );
#156 = CURVE_STYLE( '', #231, POSITIVE_LENGTH_MEASURE( 1.00000000000000E-006 ), #232 );
#157 = LINE( '', #233, #234 );
#158 = CURVE_STYLE( '', #235, POSITIVE_LENGTH_MEASURE( 1.00000000000000E-006 ), #236 );
#159 = CIRCLE( '', #237, 242.000000000000 );
#160 = CURVE_STYLE( '', #238, POSITIVE_LENGTH_MEASURE( 1.00000000000000E-006 ), #239 );
#161 = CIRCLE( '', #240, 250.000000000000 );
#162 = CURVE_STYLE( '', #241, POSITIVE_LENGTH_MEASURE( 1.00000000000000E-006 ), #242 );
#163 = CIRCLE( '', #243, 242.000000000000 );
#164 = POINT_STYLE( ' ', #244, POSITIVE_LENGTH_MEASURE( 1.00000000000000E-006 ), #245 );
#165 = CARTESIAN_POINT( '', ( 5000.00000000000, 3.06151588455594E-014, 250.000000000000 ) );
#166 = POINT_STYLE( ' ', #246, POSITIVE_LENGTH_MEASURE( 1.00000000000000E-006 ), #247 );
#167 = CARTESIAN_POINT( '', ( 5000.00000000000, 2.96354737625015E-014, 242.000000000000 ) );
#168 = POINT_STYLE( ' ', #248, POSITIVE_LENGTH_MEASURE( 1.00000000000000E-006 ), #249 );
#169 = CARTESIAN_POINT( '', ( 5000.00000000000, 0.000000000000000, -250.000000000000 ) );
#170 = CURVE_STYLE( '', #250, POSITIVE_LENGTH_MEASURE( 1.00000000000000E-006 ), #251 );
#171 = CIRCLE( '', #252, 242.000000000000 );
#172 = POINT_STYLE( ' ', #253, POSITIVE_LENGTH_MEASURE( 1.00000000000000E-006 ), #254 );
#173 = CARTESIAN_POINT( '', ( 0.000000000000000, 3.06151588455594E-014, 250.000000000000 ) );
#174 = POINT_STYLE( ' ', #255, POSITIVE_LENGTH_MEASURE( 1.00000000000000E-006 ), #256 );
#175 = CARTESIAN_POINT( '', ( 0.000000000000000, 2.96354737625015E-014, 242.000000000000 ) );
#176 = SURFACE_STYLE_USAGE( .BOTH., #257 );
#177 = FACE_OUTER_BOUND( '', #258, .T. );
#178 = FACE_BOUND( '', #259, .T. );
#179 = PLANE( '', #260 );
#180 = CURVE_STYLE( '', #261, POSITIVE_LENGTH_MEASURE( 1.00000000000000E-006 ), #262 );
#181 = LINE( '', #263, #264 );
#182 = PRODUCT_CONTEXT( '', #37, 'mechanical' );
#183 = PRODUCT_DEFINITION_FORMATION_WITH_SPECIFIED_SOURCE( ' ', 'NONE', #104, .NOT_KNOWN. );
#184 = CARTESIAN_POINT( '', ( 0.000000000000000, 0.000000000000000, 0.000000000000000 ) );
#185 = DIRECTION( '', ( 0.000000000000000, 0.000000000000000, 1.00000000000000 ) );
#186 = DIRECTION( '', ( 1.00000000000000, 0.000000000000000, 0.000000000000000 ) );
#187 =  ( NAMED_UNIT( #112 )LENGTH_UNIT(  )SI_UNIT( .MILLI., .METRE. ) );
#188 = SURFACE_SIDE_STYLE( '', ( #266 ) );
#189 = EDGE_LOOP( '', ( #267, #268 ) );
#190 = EDGE_LOOP( '', ( #269, #270 ) );
#191 = AXIS2_PLACEMENT_3D( '', #271, #272, #273 );
#192 = SURFACE_SIDE_STYLE( '', ( #274 ) );
#193 = EDGE_LOOP( '', ( #275, #276, #277, #278 ) );
#194 = AXIS2_PLACEMENT_3D( '', #279, #280, #281 );
#195 = PRE_DEFINED_MARKER( '' );
#196 = COLOUR_RGB( '', 0.689999997615810, 0.689999997615810, 0.689999997615810 );
#197 = SURFACE_SIDE_STYLE( '', ( #282 ) );
#198 = EDGE_LOOP( '', ( #283, #284, #285, #286 ) );
#199 = AXIS2_PLACEMENT_3D( '', #287, #288, #289 );
#200 = SURFACE_SIDE_STYLE( '', ( #290 ) );
#201 = EDGE_LOOP( '', ( #291, #292, #293, #294 ) );
#202 = AXIS2_PLACEMENT_3D( '', #295, #296, #297 );
#203 = SURFACE_SIDE_STYLE( '', ( #298 ) );
#204 = EDGE_LOOP( '', ( #299, #300, #301, #302 ) );
#205 = AXIS2_PLACEMENT_3D( '', #303, #304, #305 );
#206 = PRE_DEFINED_MARKER( '' );
#207 = COLOUR_RGB( '', 0.689999997615810, 0.689999997615810, 0.689999997615810 );
#208 = DRAUGHTING_PRE_DEFINED_CURVE_FONT( 'continuous' );
#209 = COLOUR_RGB( '', 0.689999997615810, 0.689999997615810, 0.689999997615810 );
#210 = CARTESIAN_POINT( '', ( 0.000000000000000, 2.96354737625015E-014, 242.000000000000 ) );
#211 = VECTOR( '', #306, 1.00000000000000 );
#212 = DRAUGHTING_PRE_DEFINED_CURVE_FONT( 'continuous' );
#213 = COLOUR_RGB( '', 0.689999997615810, 0.689999997615810, 0.689999997615810 );
#214 = AXIS2_PLACEMENT_3D( '', #307, #308, #309 );
#215 = DRAUGHTING_PRE_DEFINED_CURVE_FONT( 'continuous' );
#216 = COLOUR_RGB( '', 0.689999997615810, 0.689999997615810, 0.689999997615810 );
#217 = AXIS2_PLACEMENT_3D( '', #310, #311, #312 );
#218 = DRAUGHTING_PRE_DEFINED_CURVE_FONT( 'continuous' );
#219 = COLOUR_RGB( '', 0.689999997615810, 0.689999997615810, 0.689999997615810 );
#220 = CARTESIAN_POINT( '', ( 0.000000000000000, -2.96354737625015E-014, -242.000000000000 ) );
#221 = VECTOR( '', #313, 1.00000000000000 );
#222 = PRE_DEFINED_MARKER( '' );
#223 = COLOUR_RGB( '', 0.689999997615810, 0.689999997615810, 0.689999997615810 );
#224 = DRAUGHTING_PRE_DEFINED_CURVE_FONT( 'continuous' );
#225 = COLOUR_RGB( '', 0.689999997615810, 0.689999997615810, 0.689999997615810 );
#226 = AXIS2_PLACEMENT_3D( '', #314, #315, #316 );
#227 = DRAUGHTING_PRE_DEFINED_CURVE_FONT( 'continuous' );
#228 = COLOUR_RGB( '', 0.689999997615810, 0.689999997615810, 0.689999997615810 );
#229 = AXIS2_PLACEMENT_3D( '', #317, #318, #319 );
#230 = SURFACE_SIDE_STYLE( '', ( #320 ) );
#231 = DRAUGHTING_PRE_DEFINED_CURVE_FONT( 'continuous' );
#232 = COLOUR_RGB( '', 0.689999997615810, 0.689999997615810, 0.689999997615810 );
#233 = CARTESIAN_POINT( '', ( 0.000000000000000, -3.06151588455594E-014, -250.000000000000 ) );
#234 = VECTOR( '', #321, 1.00000000000000 );
#235 = DRAUGHTING_PRE_DEFINED_CURVE_FONT( 'continuous' );
#236 = COLOUR_RGB( '', 0.689999997615810, 0.689999997615810, 0.689999997615810 );
#237 = AXIS2_PLACEMENT_3D( '', #322, #323, #324 );
#238 = DRAUGHTING_PRE_DEFINED_CURVE_FONT( 'continuous' );
#239 = COLOUR_RGB( '', 0.689999997615810, 0.689999997615810, 0.689999997615810 );
#240 = AXIS2_PLACEMENT_3D( '', #325, #326, #327 );
#241 = DRAUGHTING_PRE_DEFINED_CURVE_FONT( 'continuous' );
#242 = COLOUR_RGB( '', 0.689999997615810, 0.689999997615810, 0.689999997615810 );
#243 = AXIS2_PLACEMENT_3D( '', #328, #329, #330 );
#244 = PRE_DEFINED_MARKER( '' );
#245 = COLOUR_RGB( '', 0.689999997615810, 0.689999997615810, 0.689999997615810 );
#246 = PRE_DEFINED_MARKER( '' );
#247 = COLOUR_RGB( '', 0.689999997615810, 0.689999997615810, 0.689999997615810 );
#248 = PRE_DEFINED_MARKER( '' );
#249 = COLOUR_RGB( '', 0.689999997615810, 0.689999997615810, 0.689999997615810 );
#250 = DRAUGHTING_PRE_DEFINED_CURVE_FONT( 'continuous' );
#251 = COLOUR_RGB( '', 0.689999997615810, 0.689999997615810, 0.689999997615810 );
#252 = AXIS2_PLACEMENT_3D( '', #331, #332, #333 );
#253 = PRE_DEFINED_MARKER( '' );
#254 = COLOUR_RGB( '', 0.689999997615810, 0.689999997615810, 0.689999997615810 );
#255 = PRE_DEFINED_MARKER( '' );
#256 = COLOUR_RGB( '', 0.689999997615810, 0.689999997615810, 0.689999997615810 );
#257 = SURFACE_SIDE_STYLE( '', ( #334 ) );
#258 = EDGE_LOOP( '', ( #335, #336 ) );
#259 = EDGE_LOOP( '', ( #337, #338 ) );
#260 = AXIS2_PLACEMENT_3D( '', #339, #340, #341 );
#261 = DRAUGHTING_PRE_DEFINED_CURVE_FONT( 'continuous' );
#262 = COLOUR_RGB( '', 0.689999997615810, 0.689999997615810, 0.689999997615810 );
#263 = CARTESIAN_POINT( '', ( 0.000000000000000, 3.06151588455594E-014, 250.000000000000 ) );
#264 = VECTOR( '', #342, 1.00000000000000 );
#266 = SURFACE_STYLE_FILL_AREA( #343 );
#267 = ORIENTED_EDGE( '', *, *, #85, .F. );
#268 = ORIENTED_EDGE( '', *, *, #75, .F. );
#269 = ORIENTED_EDGE( '', *, *, #77, .F. );
#270 = ORIENTED_EDGE( '', *, *, #95, .F. );
#271 = CARTESIAN_POINT( '', ( 5000.00000000000, 0.000000000000000, 0.000000000000000 ) );
#272 = DIRECTION( '', ( 1.00000000000000, 0.000000000000000, 0.000000000000000 ) );
#273 = DIRECTION( '', ( 0.000000000000000, 0.000000000000000, -1.00000000000000 ) );
#274 = SURFACE_STYLE_FILL_AREA( #344 );
#275 = ORIENTED_EDGE( '', *, *, #71, .F. );
#276 = ORIENTED_EDGE( '', *, *, #83, .F. );
#277 = ORIENTED_EDGE( '', *, *, #65, .F. );
#278 = ORIENTED_EDGE( '', *, *, #95, .T. );
#279 = CARTESIAN_POINT( '', ( 0.000000000000000, 0.000000000000000, 0.000000000000000 ) );
#280 = DIRECTION( '', ( -1.00000000000000, -0.000000000000000, -0.000000000000000 ) );
#281 = DIRECTION( '', ( 0.000000000000000, 0.000000000000000, -1.00000000000000 ) );
#282 = SURFACE_STYLE_FILL_AREA( #345 );
#283 = ORIENTED_EDGE( '', *, *, #81, .T. );
#284 = ORIENTED_EDGE( '', *, *, #85, .T. );
#285 = ORIENTED_EDGE( '', *, *, #103, .T. );
#286 = ORIENTED_EDGE( '', *, *, #69, .T. );
#287 = CARTESIAN_POINT( '', ( 0.000000000000000, 0.000000000000000, 0.000000000000000 ) );
#288 = DIRECTION( '', ( -1.00000000000000, -0.000000000000000, -0.000000000000000 ) );
#289 = DIRECTION( '', ( 0.000000000000000, 0.000000000000000, -1.00000000000000 ) );
#290 = SURFACE_STYLE_FILL_AREA( #346 );
#291 = ORIENTED_EDGE( '', *, *, #71, .T. );
#292 = ORIENTED_EDGE( '', *, *, #77, .T. );
#293 = ORIENTED_EDGE( '', *, *, #65, .T. );
#294 = ORIENTED_EDGE( '', *, *, #87, .F. );
#295 = CARTESIAN_POINT( '', ( 0.000000000000000, 0.000000000000000, 0.000000000000000 ) );
#296 = DIRECTION( '', ( -1.00000000000000, -0.000000000000000, -0.000000000000000 ) );
#297 = DIRECTION( '', ( 0.000000000000000, 0.000000000000000, -1.00000000000000 ) );
#298 = SURFACE_STYLE_FILL_AREA( #347 );
#299 = ORIENTED_EDGE( '', *, *, #81, .F. );
#300 = ORIENTED_EDGE( '', *, *, #67, .T. );
#301 = ORIENTED_EDGE( '', *, *, #103, .F. );
#302 = ORIENTED_EDGE( '', *, *, #75, .T. );
#303 = CARTESIAN_POINT( '', ( 0.000000000000000, 0.000000000000000, 0.000000000000000 ) );
#304 = DIRECTION( '', ( -1.00000000000000, -0.000000000000000, -0.000000000000000 ) );
#305 = DIRECTION( '', ( 0.000000000000000, 0.000000000000000, -1.00000000000000 ) );
#306 = DIRECTION( '', ( -1.00000000000000, 0.000000000000000, 0.000000000000000 ) );
#307 = CARTESIAN_POINT( '', ( 0.000000000000000, 0.000000000000000, 0.000000000000000 ) );
#308 = DIRECTION( '', ( 1.00000000000000, -0.000000000000000, 0.000000000000000 ) );
#309 = DIRECTION( '', ( 0.000000000000000, 0.000000000000000, -1.00000000000000 ) );
#310 = CARTESIAN_POINT( '', ( 0.000000000000000, 0.000000000000000, 0.000000000000000 ) );
#311 = DIRECTION( '', ( 1.00000000000000, -0.000000000000000, 0.000000000000000 ) );
#312 = DIRECTION( '', ( 0.000000000000000, 0.000000000000000, -1.00000000000000 ) );
#313 = DIRECTION( '', ( 1.00000000000000, 0.000000000000000, 0.000000000000000 ) );
#314 = CARTESIAN_POINT( '', ( 5000.00000000000, 0.000000000000000, 0.000000000000000 ) );
#315 = DIRECTION( '', ( -1.00000000000000, 0.000000000000000, 0.000000000000000 ) );
#316 = DIRECTION( '', ( 0.000000000000000, 0.000000000000000, -1.00000000000000 ) );
#317 = CARTESIAN_POINT( '', ( 5000.00000000000, 0.000000000000000, 0.000000000000000 ) );
#318 = DIRECTION( '', ( 1.00000000000000, 0.000000000000000, 0.000000000000000 ) );
#319 = DIRECTION( '', ( 0.000000000000000, 0.000000000000000, -1.00000000000000 ) );
#320 = SURFACE_STYLE_FILL_AREA( #348 );
#321 = DIRECTION( '', ( 1.00000000000000, 0.000000000000000, 0.000000000000000 ) );
#322 = CARTESIAN_POINT( '', ( 0.000000000000000, 0.000000000000000, 0.000000000000000 ) );
#323 = DIRECTION( '', ( 1.00000000000000, -0.000000000000000, 0.000000000000000 ) );
#324 = DIRECTION( '', ( 0.000000000000000, 0.000000000000000, -1.00000000000000 ) );
#325 = CARTESIAN_POINT( '', ( 5000.00000000000, 0.000000000000000, 0.000000000000000 ) );
#326 = DIRECTION( '', ( -1.00000000000000, 0.000000000000000, 0.000000000000000 ) );
#327 = DIRECTION( '', ( 0.000000000000000, 0.000000000000000, -1.00000000000000 ) );
#328 = CARTESIAN_POINT( '', ( 0.000000000000000, 0.000000000000000, 0.000000000000000 ) );
#329 = DIRECTION( '', ( 1.00000000000000, -0.000000000000000, 0.000000000000000 ) );
#330 = DIRECTION( '', ( 0.000000000000000, 0.000000000000000, -1.00000000000000 ) );
#331 = CARTESIAN_POINT( '', ( 5000.00000000000, 0.000000000000000, 0.000000000000000 ) );
#332 = DIRECTION( '', ( 1.00000000000000, 0.000000000000000, 0.000000000000000 ) );
#333 = DIRECTION( '', ( 0.000000000000000, 0.000000000000000, -1.00000000000000 ) );
#334 = SURFACE_STYLE_FILL_AREA( #349 );
#335 = ORIENTED_EDGE( '', *, *, #67, .F. );
#336 = ORIENTED_EDGE( '', *, *, #69, .F. );
#337 = ORIENTED_EDGE( '', *, *, #87, .T. );
#338 = ORIENTED_EDGE( '', *, *, #83, .T. );
#339 = CARTESIAN_POINT( '', ( 0.000000000000000, 0.000000000000000, 0.000000000000000 ) );
#340 = DIRECTION( '', ( 1.00000000000000, 0.000000000000000, 0.000000000000000 ) );
#341 = DIRECTION( '', ( 0.000000000000000, 0.000000000000000, -1.00000000000000 ) );
#342 = DIRECTION( '', ( -1.00000000000000, -0.000000000000000, -0.000000000000000 ) );
#343 = FILL_AREA_STYLE( '', ( #350 ) );
#344 = FILL_AREA_STYLE( '', ( #351 ) );
#345 = FILL_AREA_STYLE( '', ( #352 ) );
#346 = FILL_AREA_STYLE( '', ( #353 ) );
#347 = FILL_AREA_STYLE( '', ( #354 ) );
#348 = FILL_AREA_STYLE( '', ( #355 ) );
#349 = FILL_AREA_STYLE( '', ( #356 ) );
#350 = FILL_AREA_STYLE_COLOUR( '', #357 );
#351 = FILL_AREA_STYLE_COLOUR( '', #358 );
#352 = FILL_AREA_STYLE_COLOUR( '', #359 );
#353 = FILL_AREA_STYLE_COLOUR( '', #360 );
#354 = FILL_AREA_STYLE_COLOUR( '', #361 );
#355 = FILL_AREA_STYLE_COLOUR( '', #362 );
#356 = FILL_AREA_STYLE_COLOUR( '', #363 );
#357 = COLOUR_RGB( '', 0.689999997615810, 0.689999997615810, 0.689999997615810 );
#358 = COLOUR_RGB( '', 0.689999997615810, 0.689999997615810, 0.689999997615810 );
#359 = COLOUR_RGB( '', 0.689999997615810, 0.689999997615810, 0.689999997615810 );
#360 = COLOUR_RGB( '', 0.689999997615810, 0.689999997615810, 0.689999997615810 );
#361 = COLOUR_RGB( '', 0.689999997615810, 0.689999997615810, 0.689999997615810 );
#362 = COLOUR_RGB( '', 0.689999997615810, 0.689999997615810, 0.689999997615810 );
#363 = COLOUR_RGB( '', 0.689999997615810, 0.689999997615810, 0.689999997615810 );
ENDSEC;
END-ISO-10303-21;
