ISO-10303-21;
HEADER;
/* Generated by software containing ST-Developer
 * from STEP Tools, Inc. (www.steptools.com) 
 */

FILE_DESCRIPTION(
/* description */ (''),
/* implementation_level */ '2;1');

FILE_NAME(
/* name */ 'C:\\Users\\mdebiase\\Desktop\\baricentro\\DIV280225.ipt.st
p',
/* time_stamp */ '2014-05-27T15:23:53+02:00',
/* author */ ('bfaro'),
/* organization */ (''),
/* preprocessor_version */ 'ST-DEVELOPER v15.2',
/* originating_system */ 'Autodesk Inventor 2014',
/* authorisation */ '');

FILE_SCHEMA (('CONFIG_CONTROL_DESIGN','AUTOMOTIVE_DESIGN { 1 0 10303 214 3 1 1 }'));
ENDSEC;

DATA;
#10=SHAPE_REPRESENTATION_RELATIONSHIP('SRR','None',#169,#11);
#11=ADVANCED_BREP_SHAPE_REPRESENTATION($,(#91),#160);
#12=STYLED_ITEM($,(#177),#91);
#13=PLANE($,#104);
#14=PLANE($,#105);
#15=PLANE($,#106);
#16=CONICAL_SURFACE($,#99,11.4975,45.);
#17=FACE_BOUND($,#32,.T.);
#18=FACE_BOUND($,#34,.T.);
#19=FACE_BOUND($,#36,.T.);
#20=FACE_BOUND($,#38,.T.);
#21=FACE_BOUND($,#40,.T.);
#22=FACE_BOUND($,#42,.T.);
#23=FACE_BOUND($,#44,.T.);
#24=FACE_OUTER_BOUND($,#31,.T.);
#25=FACE_OUTER_BOUND($,#33,.T.);
#26=FACE_OUTER_BOUND($,#35,.T.);
#27=FACE_OUTER_BOUND($,#37,.T.);
#28=FACE_OUTER_BOUND($,#39,.T.);
#29=FACE_OUTER_BOUND($,#41,.T.);
#30=FACE_OUTER_BOUND($,#43,.T.);
#31=EDGE_LOOP($,(#66));
#32=EDGE_LOOP($,(#67));
#33=EDGE_LOOP($,(#68));
#34=EDGE_LOOP($,(#69));
#35=EDGE_LOOP($,(#70));
#36=EDGE_LOOP($,(#71));
#37=EDGE_LOOP($,(#72));
#38=EDGE_LOOP($,(#73));
#39=EDGE_LOOP($,(#74));
#40=EDGE_LOOP($,(#75));
#41=EDGE_LOOP($,(#76));
#42=EDGE_LOOP($,(#77));
#43=EDGE_LOOP($,(#78));
#44=EDGE_LOOP($,(#79));
#45=CIRCLE($,#94,112.5);
#46=CIRCLE($,#95,112.5);
#47=CIRCLE($,#97,97.5);
#48=CIRCLE($,#98,97.5);
#49=CIRCLE($,#100,109.5);
#50=CIRCLE($,#102,140.);
#51=CIRCLE($,#103,140.);
#52=VERTEX_POINT($,#139);
#53=VERTEX_POINT($,#141);
#54=VERTEX_POINT($,#144);
#55=VERTEX_POINT($,#146);
#56=VERTEX_POINT($,#149);
#57=VERTEX_POINT($,#152);
#58=VERTEX_POINT($,#154);
#59=EDGE_CURVE($,#52,#52,#45,.T.);
#60=EDGE_CURVE($,#53,#53,#46,.T.);
#61=EDGE_CURVE($,#54,#54,#47,.T.);
#62=EDGE_CURVE($,#55,#55,#48,.T.);
#63=EDGE_CURVE($,#56,#56,#49,.T.);
#64=EDGE_CURVE($,#57,#57,#50,.T.);
#65=EDGE_CURVE($,#58,#58,#51,.T.);
#66=ORIENTED_EDGE($,*,*,#59,.T.);
#67=ORIENTED_EDGE($,*,*,#60,.F.);
#68=ORIENTED_EDGE($,*,*,#61,.T.);
#69=ORIENTED_EDGE($,*,*,#62,.F.);
#70=ORIENTED_EDGE($,*,*,#63,.F.);
#71=ORIENTED_EDGE($,*,*,#61,.F.);
#72=ORIENTED_EDGE($,*,*,#64,.F.);
#73=ORIENTED_EDGE($,*,*,#65,.T.);
#74=ORIENTED_EDGE($,*,*,#59,.F.);
#75=ORIENTED_EDGE($,*,*,#62,.T.);
#76=ORIENTED_EDGE($,*,*,#65,.F.);
#77=ORIENTED_EDGE($,*,*,#60,.T.);
#78=ORIENTED_EDGE($,*,*,#64,.T.);
#79=ORIENTED_EDGE($,*,*,#63,.T.);
#80=CYLINDRICAL_SURFACE($,#93,112.5);
#81=CYLINDRICAL_SURFACE($,#96,97.5000000000001);
#82=CYLINDRICAL_SURFACE($,#101,140.);
#83=ADVANCED_FACE($,(#24,#17),#80,.F.);
#84=ADVANCED_FACE($,(#25,#18),#81,.F.);
#85=ADVANCED_FACE($,(#26,#19),#16,.F.);
#86=ADVANCED_FACE($,(#27,#20),#82,.T.);
#87=ADVANCED_FACE($,(#28,#21),#13,.T.);
#88=ADVANCED_FACE($,(#29,#22),#14,.T.);
#89=ADVANCED_FACE($,(#30,#23),#15,.T.);
#90=CLOSED_SHELL($,(#83,#84,#85,#86,#87,#88,#89));
#91=MANIFOLD_SOLID_BREP('Solido1',#90);
#92=AXIS2_PLACEMENT_3D('placement',#137,#107,#108);
#93=AXIS2_PLACEMENT_3D($,#138,#109,#110);
#94=AXIS2_PLACEMENT_3D($,#140,#111,#112);
#95=AXIS2_PLACEMENT_3D($,#142,#113,#114);
#96=AXIS2_PLACEMENT_3D($,#143,#115,#116);
#97=AXIS2_PLACEMENT_3D($,#145,#117,#118);
#98=AXIS2_PLACEMENT_3D($,#147,#119,#120);
#99=AXIS2_PLACEMENT_3D($,#148,#121,#122);
#100=AXIS2_PLACEMENT_3D($,#150,#123,#124);
#101=AXIS2_PLACEMENT_3D($,#151,#125,#126);
#102=AXIS2_PLACEMENT_3D($,#153,#127,#128);
#103=AXIS2_PLACEMENT_3D($,#155,#129,#130);
#104=AXIS2_PLACEMENT_3D($,#156,#131,#132);
#105=AXIS2_PLACEMENT_3D($,#157,#133,#134);
#106=AXIS2_PLACEMENT_3D($,#158,#135,#136);
#107=DIRECTION('axis',(0.,0.,1.));
#108=DIRECTION('refdir',(1.,0.,0.));
#109=DIRECTION('center_axis',(-1.,0.,0.));
#110=DIRECTION('ref_axis',(0.,1.,0.));
#111=DIRECTION('center_axis',(-1.,0.,0.));
#112=DIRECTION('ref_axis',(0.,1.,0.));
#113=DIRECTION('center_axis',(-1.,0.,0.));
#114=DIRECTION('ref_axis',(0.,1.,0.));
#115=DIRECTION('center_axis',(-1.,0.,0.));
#116=DIRECTION('ref_axis',(0.,1.,0.));
#117=DIRECTION('center_axis',(-1.,0.,0.));
#118=DIRECTION('ref_axis',(0.,1.,0.));
#119=DIRECTION('center_axis',(-1.,0.,0.));
#120=DIRECTION('ref_axis',(0.,1.,0.));
#121=DIRECTION('center_axis',(-1.,1.06245737209243E-016,7.71920465017968E-017));
#122=DIRECTION('ref_axis',(4.05822604541413E-017,0.809016994374947,-0.587785252292474));
#123=DIRECTION('center_axis',(1.,0.,0.));
#124=DIRECTION('ref_axis',(0.,1.,0.));
#125=DIRECTION('center_axis',(1.,0.,0.));
#126=DIRECTION('ref_axis',(0.,-1.,0.));
#127=DIRECTION('center_axis',(-1.,0.,0.));
#128=DIRECTION('ref_axis',(0.,-1.,0.));
#129=DIRECTION('center_axis',(-1.,0.,0.));
#130=DIRECTION('ref_axis',(0.,-1.,0.));
#131=DIRECTION('center_axis',(1.,0.,0.));
#132=DIRECTION('ref_axis',(0.,0.,-1.));
#133=DIRECTION('center_axis',(1.,0.,0.));
#134=DIRECTION('ref_axis',(0.,0.,-1.));
#135=DIRECTION('center_axis',(-1.,0.,0.));
#136=DIRECTION('ref_axis',(0.,0.,1.));
#137=CARTESIAN_POINT('',(0.,0.,0.));
#138=CARTESIAN_POINT('Origin',(17.245182,2.70993965045818E-007,-1.15468008488051E-007));
#139=CARTESIAN_POINT('',(-42.754818,-112.499999729006,-1.15468008488051E-007));
#140=CARTESIAN_POINT('Origin',(-42.754818,2.70993965045818E-007,-1.15468008488051E-007));
#141=CARTESIAN_POINT('',(77.245182,-112.499999729006,-1.15468008488051E-007));
#142=CARTESIAN_POINT('Origin',(77.245182,2.70993965045818E-007,-1.15468008488051E-007));
#143=CARTESIAN_POINT('Origin',(-50.254818,2.70993965045818E-007,-1.15468008488051E-007));
#144=CARTESIAN_POINT('',(-57.754818,-97.499999729006,-1.15468008488051E-007));
#145=CARTESIAN_POINT('Origin',(-57.754818,2.70993965045818E-007,-1.15468008488051E-007));
#146=CARTESIAN_POINT('',(-42.754818,-97.499999729006,-1.15468008488051E-007));
#147=CARTESIAN_POINT('Origin',(-42.754818,2.70993965045818E-007,-1.15468008488051E-007));
#148=CARTESIAN_POINT('Origin',(28.247682,2.70993965045818E-007,-1.15467990724483E-007));
#149=CARTESIAN_POINT('',(-69.754818,-109.499999729006,-1.15468008488051E-007));
#150=CARTESIAN_POINT('Origin',(-69.754818,2.70993965045818E-007,-1.15468008488051E-007));
#151=CARTESIAN_POINT('Origin',(-69.754818,2.70993965045818E-007,-1.15468008488051E-007));
#152=CARTESIAN_POINT('',(-69.754818,140.000000270994,-1.15468008488051E-007));
#153=CARTESIAN_POINT('Origin',(-69.754818,2.70993965045818E-007,-1.15468008488051E-007));
#154=CARTESIAN_POINT('',(77.245182,140.000000270994,-1.15468008488051E-007));
#155=CARTESIAN_POINT('Origin',(77.245182,2.70993965045818E-007,-1.15468008488051E-007));
#156=CARTESIAN_POINT('Origin',(-42.754818,105.000000270994,-1.15468008488051E-007));
#157=CARTESIAN_POINT('Origin',(77.245182,-139.999999729006,-1.15468008488051E-007));
#158=CARTESIAN_POINT('Origin',(-69.754818,2.70992970285988E-007,-1.15469003247881E-007));
#159=UNCERTAINTY_MEASURE_WITH_UNIT(LENGTH_MEASURE(0.01),#161,
'DISTANCE_ACCURACY_VALUE',
'Maximum model space distance between geometric entities at asserted c
onnectivities');
#160=(
GEOMETRIC_REPRESENTATION_CONTEXT(3)
GLOBAL_UNCERTAINTY_ASSIGNED_CONTEXT((#159))
GLOBAL_UNIT_ASSIGNED_CONTEXT((#161,#164,#162))
REPRESENTATION_CONTEXT('','3D')
);
#161=(
LENGTH_UNIT()
NAMED_UNIT(*)
SI_UNIT(.MILLI.,.METRE.)
);
#162=(
NAMED_UNIT(*)
SI_UNIT($,.STERADIAN.)
SOLID_ANGLE_UNIT()
);
#163=DIMENSIONAL_EXPONENTS(0.,0.,0.,0.,0.,0.,0.);
#164=(
CONVERSION_BASED_UNIT('degree',#166)
NAMED_UNIT(#163)
PLANE_ANGLE_UNIT()
);
#165=(
NAMED_UNIT(*)
PLANE_ANGLE_UNIT()
SI_UNIT($,.RADIAN.)
);
#166=PLANE_ANGLE_MEASURE_WITH_UNIT(PLANE_ANGLE_MEASURE(0.01745329252),#165);
#167=SHAPE_DEFINITION_REPRESENTATION(#168,#169);
#168=PRODUCT_DEFINITION_SHAPE('',$,#171);
#169=SHAPE_REPRESENTATION('',(#92),#160);
#170=PRODUCT_DEFINITION_CONTEXT('3D Mechanical Parts',#174,'design');
#171=PRODUCT_DEFINITION('DIV280225','DIV280225',#172,#170);
#172=PRODUCT_DEFINITION_FORMATION('',$,#176);
#173=APPLICATION_PROTOCOL_DEFINITION('international standard',
'automotive_design',2009,#174);
#174=APPLICATION_CONTEXT(
'Core Data for Automotive Mechanical Design Process');
#175=PRODUCT_CONTEXT('3D Mechanical Parts',#174,'mechanical');
#176=PRODUCT('DIV280225','DIV280225',$,(#175));
#177=PRESENTATION_STYLE_ASSIGNMENT((#178));
#178=SURFACE_STYLE_USAGE(.BOTH.,#179);
#179=SURFACE_SIDE_STYLE($,(#180));
#180=SURFACE_STYLE_FILL_AREA(#181);
#181=FILL_AREA_STYLE($,(#182));
#182=FILL_AREA_STYLE_COLOUR($,#183);
#183=COLOUR_RGB('',0.509803921568627,0.509803921568627,0.588235294117647);
ENDSEC;
END-ISO-10303-21;
