ISO-10303-21;
HEADER;
/* Generated by software containing ST-Developer
 * from STEP Tools, Inc. (www.steptools.com) 
 */

FILE_DESCRIPTION(
/* description */ (''),
/* implementation_level */ '2;1');

FILE_NAME(
/* name */ 
'Q:\\Ric010\\FF7\\FIPlastiCAD\\FIP\\Lavoro\\PVC Fittings\\PVC Fittings
 STEP\\QRV\\QRV160.ipt.stp',
/* time_stamp */ '2013-10-01T14:53:10+02:00',
/* author */ ('bfaro'),
/* organization */ (''),
/* preprocessor_version */ 'ST-DEVELOPER v15.2',
/* originating_system */ 'Autodesk Inventor 2014',
/* authorisation */ '');

FILE_SCHEMA (('AUTOMOTIVE_DESIGN { 1 0 10303 214 3 1 1 }'));
ENDSEC;

DATA;
#10=SHAPE_REPRESENTATION_RELATIONSHIP('SRR','None',#329,#11);
#11=ADVANCED_BREP_SHAPE_REPRESENTATION($,(#179),#320);
#12=STYLED_ITEM($,(#337),#179);
#13=CONICAL_SURFACE($,#198,75.6151050508178,22.4260108015444);
#14=CONICAL_SURFACE($,#200,76.40322032076,22.604495623169);
#15=CONICAL_SURFACE($,#202,77.1913356261515,22.4260108015447);
#16=CONICAL_SURFACE($,#204,77.9794509315429,22.604495623169);
#17=CONICAL_SURFACE($,#206,78.7675662369344,22.4260108015448);
#18=CONICAL_SURFACE($,#208,79.5556815423259,22.604495623169);
#19=PLANE($,#184);
#20=PLANE($,#188);
#21=PLANE($,#192);
#22=PLANE($,#196);
#23=PLANE($,#210);
#24=FACE_BOUND($,#55,.T.);
#25=FACE_BOUND($,#56,.T.);
#26=FACE_BOUND($,#57,.T.);
#27=FACE_BOUND($,#59,.T.);
#28=FACE_BOUND($,#60,.T.);
#29=FACE_BOUND($,#61,.T.);
#30=FACE_BOUND($,#63,.T.);
#31=FACE_BOUND($,#64,.T.);
#32=FACE_BOUND($,#65,.T.);
#33=FACE_BOUND($,#67,.T.);
#34=FACE_BOUND($,#69,.T.);
#35=FACE_BOUND($,#71,.T.);
#36=FACE_BOUND($,#73,.T.);
#37=FACE_BOUND($,#75,.T.);
#38=FACE_BOUND($,#77,.T.);
#39=FACE_BOUND($,#79,.T.);
#40=FACE_BOUND($,#81,.T.);
#41=FACE_BOUND($,#83,.T.);
#42=FACE_OUTER_BOUND($,#54,.T.);
#43=FACE_OUTER_BOUND($,#58,.T.);
#44=FACE_OUTER_BOUND($,#62,.T.);
#45=FACE_OUTER_BOUND($,#66,.T.);
#46=FACE_OUTER_BOUND($,#68,.T.);
#47=FACE_OUTER_BOUND($,#70,.T.);
#48=FACE_OUTER_BOUND($,#72,.T.);
#49=FACE_OUTER_BOUND($,#74,.T.);
#50=FACE_OUTER_BOUND($,#76,.T.);
#51=FACE_OUTER_BOUND($,#78,.T.);
#52=FACE_OUTER_BOUND($,#80,.T.);
#53=FACE_OUTER_BOUND($,#82,.T.);
#54=EDGE_LOOP($,(#129));
#55=EDGE_LOOP($,(#130));
#56=EDGE_LOOP($,(#131));
#57=EDGE_LOOP($,(#132));
#58=EDGE_LOOP($,(#133));
#59=EDGE_LOOP($,(#134));
#60=EDGE_LOOP($,(#135));
#61=EDGE_LOOP($,(#136));
#62=EDGE_LOOP($,(#137));
#63=EDGE_LOOP($,(#138));
#64=EDGE_LOOP($,(#139));
#65=EDGE_LOOP($,(#140));
#66=EDGE_LOOP($,(#141));
#67=EDGE_LOOP($,(#142));
#68=EDGE_LOOP($,(#143));
#69=EDGE_LOOP($,(#144));
#70=EDGE_LOOP($,(#145));
#71=EDGE_LOOP($,(#146));
#72=EDGE_LOOP($,(#147));
#73=EDGE_LOOP($,(#148));
#74=EDGE_LOOP($,(#149));
#75=EDGE_LOOP($,(#150));
#76=EDGE_LOOP($,(#151));
#77=EDGE_LOOP($,(#152));
#78=EDGE_LOOP($,(#153));
#79=EDGE_LOOP($,(#154));
#80=EDGE_LOOP($,(#155));
#81=EDGE_LOOP($,(#156));
#82=EDGE_LOOP($,(#157));
#83=EDGE_LOOP($,(#158));
#84=CIRCLE($,#182,106.);
#85=CIRCLE($,#183,106.);
#86=CIRCLE($,#185,94.);
#87=CIRCLE($,#187,94.);
#88=CIRCLE($,#189,80.);
#89=CIRCLE($,#191,80.);
#90=CIRCLE($,#193,75.);
#91=CIRCLE($,#195,75.);
#92=CIRCLE($,#197,75.2227825160398);
#93=CIRCLE($,#199,76.0074275855958);
#94=CIRCLE($,#201,76.7990130559242);
#95=CIRCLE($,#203,77.5836581963787);
#96=CIRCLE($,#205,78.3752436667071);
#97=CIRCLE($,#207,79.1598888071617);
#98=CIRCLE($,#209,79.95147427749);
#99=VERTEX_POINT($,#275);
#100=VERTEX_POINT($,#277);
#101=VERTEX_POINT($,#280);
#102=VERTEX_POINT($,#283);
#103=VERTEX_POINT($,#286);
#104=VERTEX_POINT($,#289);
#105=VERTEX_POINT($,#292);
#106=VERTEX_POINT($,#295);
#107=VERTEX_POINT($,#298);
#108=VERTEX_POINT($,#301);
#109=VERTEX_POINT($,#304);
#110=VERTEX_POINT($,#307);
#111=VERTEX_POINT($,#310);
#112=VERTEX_POINT($,#313);
#113=VERTEX_POINT($,#316);
#114=EDGE_CURVE($,#99,#99,#84,.T.);
#115=EDGE_CURVE($,#100,#100,#85,.T.);
#116=EDGE_CURVE($,#101,#101,#86,.T.);
#117=EDGE_CURVE($,#102,#102,#87,.T.);
#118=EDGE_CURVE($,#103,#103,#88,.T.);
#119=EDGE_CURVE($,#104,#104,#89,.T.);
#120=EDGE_CURVE($,#105,#105,#90,.T.);
#121=EDGE_CURVE($,#106,#106,#91,.T.);
#122=EDGE_CURVE($,#107,#107,#92,.T.);
#123=EDGE_CURVE($,#108,#108,#93,.T.);
#124=EDGE_CURVE($,#109,#109,#94,.T.);
#125=EDGE_CURVE($,#110,#110,#95,.T.);
#126=EDGE_CURVE($,#111,#111,#96,.T.);
#127=EDGE_CURVE($,#112,#112,#97,.T.);
#128=EDGE_CURVE($,#113,#113,#98,.T.);
#129=ORIENTED_EDGE($,*,*,#114,.F.);
#130=ORIENTED_EDGE($,*,*,#115,.T.);
#131=ORIENTED_EDGE($,*,*,#116,.F.);
#132=ORIENTED_EDGE($,*,*,#114,.T.);
#133=ORIENTED_EDGE($,*,*,#117,.F.);
#134=ORIENTED_EDGE($,*,*,#116,.T.);
#135=ORIENTED_EDGE($,*,*,#118,.F.);
#136=ORIENTED_EDGE($,*,*,#117,.T.);
#137=ORIENTED_EDGE($,*,*,#119,.F.);
#138=ORIENTED_EDGE($,*,*,#118,.T.);
#139=ORIENTED_EDGE($,*,*,#120,.F.);
#140=ORIENTED_EDGE($,*,*,#119,.T.);
#141=ORIENTED_EDGE($,*,*,#121,.F.);
#142=ORIENTED_EDGE($,*,*,#120,.T.);
#143=ORIENTED_EDGE($,*,*,#122,.F.);
#144=ORIENTED_EDGE($,*,*,#121,.T.);
#145=ORIENTED_EDGE($,*,*,#123,.F.);
#146=ORIENTED_EDGE($,*,*,#122,.T.);
#147=ORIENTED_EDGE($,*,*,#124,.F.);
#148=ORIENTED_EDGE($,*,*,#123,.T.);
#149=ORIENTED_EDGE($,*,*,#125,.F.);
#150=ORIENTED_EDGE($,*,*,#124,.T.);
#151=ORIENTED_EDGE($,*,*,#126,.F.);
#152=ORIENTED_EDGE($,*,*,#125,.T.);
#153=ORIENTED_EDGE($,*,*,#127,.F.);
#154=ORIENTED_EDGE($,*,*,#126,.T.);
#155=ORIENTED_EDGE($,*,*,#128,.F.);
#156=ORIENTED_EDGE($,*,*,#127,.T.);
#157=ORIENTED_EDGE($,*,*,#115,.F.);
#158=ORIENTED_EDGE($,*,*,#128,.T.);
#159=CYLINDRICAL_SURFACE($,#181,106.);
#160=CYLINDRICAL_SURFACE($,#186,94.);
#161=CYLINDRICAL_SURFACE($,#190,80.);
#162=CYLINDRICAL_SURFACE($,#194,75.);
#163=ADVANCED_FACE($,(#42,#24),#159,.T.);
#164=ADVANCED_FACE($,(#25,#26),#19,.T.);
#165=ADVANCED_FACE($,(#43,#27),#160,.T.);
#166=ADVANCED_FACE($,(#28,#29),#20,.T.);
#167=ADVANCED_FACE($,(#44,#30),#161,.F.);
#168=ADVANCED_FACE($,(#31,#32),#21,.T.);
#169=ADVANCED_FACE($,(#45,#33),#162,.F.);
#170=ADVANCED_FACE($,(#46,#34),#22,.T.);
#171=ADVANCED_FACE($,(#47,#35),#13,.T.);
#172=ADVANCED_FACE($,(#48,#36),#14,.F.);
#173=ADVANCED_FACE($,(#49,#37),#15,.T.);
#174=ADVANCED_FACE($,(#50,#38),#16,.F.);
#175=ADVANCED_FACE($,(#51,#39),#17,.T.);
#176=ADVANCED_FACE($,(#52,#40),#18,.F.);
#177=ADVANCED_FACE($,(#53,#41),#23,.T.);
#178=CLOSED_SHELL($,(#163,#164,#165,#166,#167,#168,#169,#170,#171,#172,
#173,#174,#175,#176,#177));
#179=MANIFOLD_SOLID_BREP('Solido1',#178);
#180=AXIS2_PLACEMENT_3D('placement',#273,#211,#212);
#181=AXIS2_PLACEMENT_3D($,#274,#213,#214);
#182=AXIS2_PLACEMENT_3D($,#276,#215,#216);
#183=AXIS2_PLACEMENT_3D($,#278,#217,#218);
#184=AXIS2_PLACEMENT_3D($,#279,#219,#220);
#185=AXIS2_PLACEMENT_3D($,#281,#221,#222);
#186=AXIS2_PLACEMENT_3D($,#282,#223,#224);
#187=AXIS2_PLACEMENT_3D($,#284,#225,#226);
#188=AXIS2_PLACEMENT_3D($,#285,#227,#228);
#189=AXIS2_PLACEMENT_3D($,#287,#229,#230);
#190=AXIS2_PLACEMENT_3D($,#288,#231,#232);
#191=AXIS2_PLACEMENT_3D($,#290,#233,#234);
#192=AXIS2_PLACEMENT_3D($,#291,#235,#236);
#193=AXIS2_PLACEMENT_3D($,#293,#237,#238);
#194=AXIS2_PLACEMENT_3D($,#294,#239,#240);
#195=AXIS2_PLACEMENT_3D($,#296,#241,#242);
#196=AXIS2_PLACEMENT_3D($,#297,#243,#244);
#197=AXIS2_PLACEMENT_3D($,#299,#245,#246);
#198=AXIS2_PLACEMENT_3D($,#300,#247,#248);
#199=AXIS2_PLACEMENT_3D($,#302,#249,#250);
#200=AXIS2_PLACEMENT_3D($,#303,#251,#252);
#201=AXIS2_PLACEMENT_3D($,#305,#253,#254);
#202=AXIS2_PLACEMENT_3D($,#306,#255,#256);
#203=AXIS2_PLACEMENT_3D($,#308,#257,#258);
#204=AXIS2_PLACEMENT_3D($,#309,#259,#260);
#205=AXIS2_PLACEMENT_3D($,#311,#261,#262);
#206=AXIS2_PLACEMENT_3D($,#312,#263,#264);
#207=AXIS2_PLACEMENT_3D($,#314,#265,#266);
#208=AXIS2_PLACEMENT_3D($,#315,#267,#268);
#209=AXIS2_PLACEMENT_3D($,#317,#269,#270);
#210=AXIS2_PLACEMENT_3D($,#318,#271,#272);
#211=DIRECTION('axis',(0.,0.,1.));
#212=DIRECTION('refdir',(1.,0.,0.));
#213=DIRECTION('center_axis',(0.,0.,1.));
#214=DIRECTION('ref_axis',(0.,-1.,0.));
#215=DIRECTION('center_axis',(0.,0.,1.));
#216=DIRECTION('ref_axis',(0.,-1.,0.));
#217=DIRECTION('center_axis',(0.,0.,1.));
#218=DIRECTION('ref_axis',(0.,-1.,0.));
#219=DIRECTION('center_axis',(0.,0.,1.));
#220=DIRECTION('ref_axis',(1.,0.,0.));
#221=DIRECTION('center_axis',(0.,0.,1.));
#222=DIRECTION('ref_axis',(0.,-1.,0.));
#223=DIRECTION('center_axis',(0.,0.,1.));
#224=DIRECTION('ref_axis',(0.,-1.,0.));
#225=DIRECTION('center_axis',(0.,0.,1.));
#226=DIRECTION('ref_axis',(0.,-1.,0.));
#227=DIRECTION('center_axis',(0.,0.,1.));
#228=DIRECTION('ref_axis',(1.,0.,0.));
#229=DIRECTION('center_axis',(0.,0.,1.));
#230=DIRECTION('ref_axis',(0.,-1.,0.));
#231=DIRECTION('center_axis',(0.,0.,1.));
#232=DIRECTION('ref_axis',(0.,-1.,0.));
#233=DIRECTION('center_axis',(0.,0.,1.));
#234=DIRECTION('ref_axis',(0.,-1.,0.));
#235=DIRECTION('center_axis',(0.,0.,1.));
#236=DIRECTION('ref_axis',(1.,0.,0.));
#237=DIRECTION('center_axis',(0.,0.,1.));
#238=DIRECTION('ref_axis',(0.,-1.,0.));
#239=DIRECTION('center_axis',(0.,0.,1.));
#240=DIRECTION('ref_axis',(0.,-1.,0.));
#241=DIRECTION('center_axis',(0.,0.,1.));
#242=DIRECTION('ref_axis',(0.,-1.,0.));
#243=DIRECTION('center_axis',(0.,0.,-1.));
#244=DIRECTION('ref_axis',(-1.,0.,0.));
#245=DIRECTION('center_axis',(0.,0.,1.));
#246=DIRECTION('ref_axis',(0.,-1.,0.));
#247=DIRECTION('center_axis',(0.,0.,1.));
#248=DIRECTION('ref_axis',(0.,-1.,0.));
#249=DIRECTION('center_axis',(0.,0.,1.));
#250=DIRECTION('ref_axis',(0.,-1.,0.));
#251=DIRECTION('center_axis',(0.,0.,-1.));
#252=DIRECTION('ref_axis',(0.,-1.,0.));
#253=DIRECTION('center_axis',(0.,0.,1.));
#254=DIRECTION('ref_axis',(0.,-1.,0.));
#255=DIRECTION('center_axis',(0.,0.,1.));
#256=DIRECTION('ref_axis',(0.,-1.,0.));
#257=DIRECTION('center_axis',(0.,0.,1.));
#258=DIRECTION('ref_axis',(0.,-1.,0.));
#259=DIRECTION('center_axis',(0.,0.,-1.));
#260=DIRECTION('ref_axis',(0.,-1.,0.));
#261=DIRECTION('center_axis',(0.,0.,1.));
#262=DIRECTION('ref_axis',(0.,-1.,0.));
#263=DIRECTION('center_axis',(0.,0.,1.));
#264=DIRECTION('ref_axis',(0.,-1.,0.));
#265=DIRECTION('center_axis',(0.,0.,1.));
#266=DIRECTION('ref_axis',(0.,-1.,0.));
#267=DIRECTION('center_axis',(0.,0.,-1.));
#268=DIRECTION('ref_axis',(0.,-1.,0.));
#269=DIRECTION('center_axis',(0.,0.,1.));
#270=DIRECTION('ref_axis',(0.,-1.,0.));
#271=DIRECTION('center_axis',(0.,0.,-1.));
#272=DIRECTION('ref_axis',(-1.,0.,0.));
#273=CARTESIAN_POINT('',(0.,0.,0.));
#274=CARTESIAN_POINT('Origin',(0.,0.,8.));
#275=CARTESIAN_POINT('',(0.,-106.,16.));
#276=CARTESIAN_POINT('Origin',(0.,0.,16.));
#277=CARTESIAN_POINT('',(0.,-106.,0.));
#278=CARTESIAN_POINT('Origin',(0.,0.,0.));
#279=CARTESIAN_POINT('Origin',(0.,-100.,16.));
#280=CARTESIAN_POINT('',(0.,-94.,16.));
#281=CARTESIAN_POINT('Origin',(0.,0.,16.));
#282=CARTESIAN_POINT('Origin',(0.,0.,53.25));
#283=CARTESIAN_POINT('',(0.,-94.,90.5));
#284=CARTESIAN_POINT('Origin',(0.,0.,90.5));
#285=CARTESIAN_POINT('Origin',(0.,-87.,90.5));
#286=CARTESIAN_POINT('',(0.,-80.,90.5));
#287=CARTESIAN_POINT('Origin',(0.,0.,90.5));
#288=CARTESIAN_POINT('Origin',(0.,0.,47.5));
#289=CARTESIAN_POINT('',(0.,-80.,4.5));
#290=CARTESIAN_POINT('Origin',(0.,0.,4.5));
#291=CARTESIAN_POINT('Origin',(0.,-77.5,4.5));
#292=CARTESIAN_POINT('',(0.,-75.,4.5));
#293=CARTESIAN_POINT('Origin',(0.,0.,4.5));
#294=CARTESIAN_POINT('Origin',(0.,0.,2.25));
#295=CARTESIAN_POINT('',(0.,-75.,0.));
#296=CARTESIAN_POINT('Origin',(0.,0.,0.));
#297=CARTESIAN_POINT('Origin',(0.,-75.1113912580199,-2.92706444451804E-024));
#298=CARTESIAN_POINT('',(0.,-75.2227825160398,-5.85412888903608E-024));
#299=CARTESIAN_POINT('Origin',(0.,0.,-5.85412888903608E-024));
#300=CARTESIAN_POINT('Origin',(0.,0.,0.950620675654413));
#301=CARTESIAN_POINT('',(0.,-76.0074275855958,1.90124135130883));
#302=CARTESIAN_POINT('Origin',(0.,0.,1.90124135130883));
#303=CARTESIAN_POINT('Origin',(0.,0.,0.950620618390646));
#304=CARTESIAN_POINT('',(0.,-76.7990130559242,-1.14527534430487E-007));
#305=CARTESIAN_POINT('Origin',(0.,0.,-1.14527534430487E-007));
#306=CARTESIAN_POINT('Origin',(0.,0.,0.95062064702253));
#307=CARTESIAN_POINT('',(0.,-77.5836581963787,1.9012414085726));
#308=CARTESIAN_POINT('Origin',(0.,0.,1.9012414085726));
#309=CARTESIAN_POINT('Origin',(0.,0.,0.950620675654415));
#310=CARTESIAN_POINT('',(0.,-78.3752436667071,-5.72637643876304E-008));
#311=CARTESIAN_POINT('Origin',(0.,0.,-5.72637643876304E-008));
#312=CARTESIAN_POINT('Origin',(0.,0.,0.950620704286298));
#313=CARTESIAN_POINT('',(0.,-79.1598888071617,1.90124146583636));
#314=CARTESIAN_POINT('Origin',(0.,0.,1.90124146583636));
#315=CARTESIAN_POINT('Origin',(0.,0.,0.95062073291818));
#316=CARTESIAN_POINT('',(0.,-79.95147427749,0.));
#317=CARTESIAN_POINT('Origin',(0.,0.,0.));
#318=CARTESIAN_POINT('Origin',(0.,-92.975737138745,0.));
#319=UNCERTAINTY_MEASURE_WITH_UNIT(LENGTH_MEASURE(0.01),#321,
'DISTANCE_ACCURACY_VALUE',
'Maximum model space distance between geometric entities at asserted c
onnectivities');
#320=(
GEOMETRIC_REPRESENTATION_CONTEXT(3)
GLOBAL_UNCERTAINTY_ASSIGNED_CONTEXT((#319))
GLOBAL_UNIT_ASSIGNED_CONTEXT((#321,#324,#322))
REPRESENTATION_CONTEXT('','3D')
);
#321=(
LENGTH_UNIT()
NAMED_UNIT(*)
SI_UNIT(.MILLI.,.METRE.)
);
#322=(
NAMED_UNIT(*)
SI_UNIT($,.STERADIAN.)
SOLID_ANGLE_UNIT()
);
#323=DIMENSIONAL_EXPONENTS(0.,0.,0.,0.,0.,0.,0.);
#324=(
CONVERSION_BASED_UNIT('degree',#326)
NAMED_UNIT(#323)
PLANE_ANGLE_UNIT()
);
#325=(
NAMED_UNIT(*)
PLANE_ANGLE_UNIT()
SI_UNIT($,.RADIAN.)
);
#326=PLANE_ANGLE_MEASURE_WITH_UNIT(PLANE_ANGLE_MEASURE(0.01745329252),#325);
#327=SHAPE_DEFINITION_REPRESENTATION(#328,#329);
#328=PRODUCT_DEFINITION_SHAPE('',$,#331);
#329=SHAPE_REPRESENTATION('',(#180),#320);
#330=PRODUCT_DEFINITION_CONTEXT('3D Mechanical Parts',#334,'design');
#331=PRODUCT_DEFINITION('QRV160','QRV160',#332,#330);
#332=PRODUCT_DEFINITION_FORMATION('',$,#336);
#333=APPLICATION_PROTOCOL_DEFINITION('international standard',
'automotive_design',2009,#334);
#334=APPLICATION_CONTEXT(
'Core Data for Automotive Mechanical Design Process');
#335=PRODUCT_CONTEXT('3D Mechanical Parts',#334,'mechanical');
#336=PRODUCT('QRV160','QRV160',$,(#335));
#337=PRESENTATION_STYLE_ASSIGNMENT((#338));
#338=SURFACE_STYLE_USAGE(.BOTH.,#339);
#339=SURFACE_SIDE_STYLE($,(#340));
#340=SURFACE_STYLE_FILL_AREA(#341);
#341=FILL_AREA_STYLE($,(#342));
#342=FILL_AREA_STYLE_COLOUR($,#343);
#343=COLOUR_RGB('',0.509803921568627,0.509803921568627,0.588235294117647);
ENDSEC;
END-ISO-10303-21;
