ISO-10303-21;
HEADER;
/* Generated by software containing ST-Developer
 * from STEP Tools, Inc. (www.steptools.com) 
 */

FILE_DESCRIPTION(
/* description */ (''),
/* implementation_level */ '2;1');

FILE_NAME(
/* name */ 
'Q:\\Ric010\\FF7\\FIPlastiCAD\\FIP\\Lavoro\\PVC Fittings\\PVC Fittings
 STEP\\KIFV\\KIFV110090400.ipt.stp',
/* time_stamp */ '2013-10-01T14:44:55+02:00',
/* author */ ('bfaro'),
/* organization */ (''),
/* preprocessor_version */ 'ST-DEVELOPER v15.2',
/* originating_system */ 'Autodesk Inventor 2014',
/* authorisation */ '');

FILE_SCHEMA (('AUTOMOTIVE_DESIGN { 1 0 10303 214 3 1 1 }'));
ENDSEC;

DATA;
#10=SHAPE_REPRESENTATION_RELATIONSHIP('SRR','None',#464,#11);
#11=ADVANCED_BREP_SHAPE_REPRESENTATION($,(#277),#455);
#12=LINE($,#404,#36);
#13=LINE($,#406,#37);
#14=LINE($,#408,#38);
#15=LINE($,#410,#39);
#16=LINE($,#412,#40);
#17=LINE($,#414,#41);
#18=LINE($,#416,#42);
#19=LINE($,#417,#43);
#20=LINE($,#421,#44);
#21=LINE($,#423,#45);
#22=LINE($,#424,#46);
#23=LINE($,#427,#47);
#24=LINE($,#428,#48);
#25=LINE($,#431,#49);
#26=LINE($,#432,#50);
#27=LINE($,#435,#51);
#28=LINE($,#437,#52);
#29=LINE($,#439,#53);
#30=LINE($,#441,#54);
#31=LINE($,#442,#55);
#32=LINE($,#444,#56);
#33=LINE($,#446,#57);
#34=LINE($,#448,#58);
#35=LINE($,#450,#59);
#36=VECTOR($,#332,53.019335983053);
#37=VECTOR($,#333,53.0193359945524);
#38=VECTOR($,#334,53.019335983056);
#39=VECTOR($,#335,53.0193359830605);
#40=VECTOR($,#336,53.019335983059);
#41=VECTOR($,#337,53.0193359830605);
#42=VECTOR($,#338,53.019335983056);
#43=VECTOR($,#339,53.0193359830633);
#44=VECTOR($,#344,27.8);
#45=VECTOR($,#345,27.8);
#46=VECTOR($,#346,53.019335983053);
#47=VECTOR($,#349,27.8);
#48=VECTOR($,#350,53.0193359945524);
#49=VECTOR($,#353,27.8);
#50=VECTOR($,#354,53.0193359830633);
#51=VECTOR($,#357,53.019335983056);
#52=VECTOR($,#358,53.0193359830605);
#53=VECTOR($,#359,53.019335983059);
#54=VECTOR($,#360,53.0193359830605);
#55=VECTOR($,#361,53.019335983056);
#56=VECTOR($,#364,27.8);
#57=VECTOR($,#367,27.8);
#58=VECTOR($,#370,27.8);
#59=VECTOR($,#373,27.8);
#60=PLANE($,#291);
#61=PLANE($,#292);
#62=PLANE($,#293);
#63=PLANE($,#294);
#64=PLANE($,#295);
#65=PLANE($,#296);
#66=PLANE($,#297);
#67=PLANE($,#298);
#68=PLANE($,#299);
#69=PLANE($,#300);
#70=PLANE($,#301);
#71=PLANE($,#302);
#72=PLANE($,#303);
#73=FACE_BOUND($,#100,.T.);
#74=FACE_BOUND($,#102,.T.);
#75=FACE_BOUND($,#104,.T.);
#76=FACE_BOUND($,#106,.T.);
#77=FACE_BOUND($,#108,.T.);
#78=FACE_BOUND($,#109,.T.);
#79=FACE_BOUND($,#110,.T.);
#80=FACE_BOUND($,#115,.T.);
#81=FACE_BOUND($,#122,.T.);
#82=FACE_BOUND($,#124,.T.);
#83=FACE_OUTER_BOUND($,#99,.T.);
#84=FACE_OUTER_BOUND($,#101,.T.);
#85=FACE_OUTER_BOUND($,#103,.T.);
#86=FACE_OUTER_BOUND($,#105,.T.);
#87=FACE_OUTER_BOUND($,#107,.T.);
#88=FACE_OUTER_BOUND($,#111,.T.);
#89=FACE_OUTER_BOUND($,#112,.T.);
#90=FACE_OUTER_BOUND($,#113,.T.);
#91=FACE_OUTER_BOUND($,#114,.T.);
#92=FACE_OUTER_BOUND($,#116,.T.);
#93=FACE_OUTER_BOUND($,#117,.T.);
#94=FACE_OUTER_BOUND($,#118,.T.);
#95=FACE_OUTER_BOUND($,#119,.T.);
#96=FACE_OUTER_BOUND($,#120,.T.);
#97=FACE_OUTER_BOUND($,#121,.T.);
#98=FACE_OUTER_BOUND($,#123,.T.);
#99=EDGE_LOOP($,(#189));
#100=EDGE_LOOP($,(#190));
#101=EDGE_LOOP($,(#191));
#102=EDGE_LOOP($,(#192));
#103=EDGE_LOOP($,(#193));
#104=EDGE_LOOP($,(#194));
#105=EDGE_LOOP($,(#195));
#106=EDGE_LOOP($,(#196));
#107=EDGE_LOOP($,(#197,#198,#199,#200,#201,#202,#203,#204));
#108=EDGE_LOOP($,(#205));
#109=EDGE_LOOP($,(#206));
#110=EDGE_LOOP($,(#207));
#111=EDGE_LOOP($,(#208,#209,#210,#211));
#112=EDGE_LOOP($,(#212,#213,#214,#215));
#113=EDGE_LOOP($,(#216,#217,#218,#219));
#114=EDGE_LOOP($,(#220,#221,#222,#223,#224,#225,#226,#227));
#115=EDGE_LOOP($,(#228));
#116=EDGE_LOOP($,(#229,#230,#231,#232));
#117=EDGE_LOOP($,(#233,#234,#235,#236));
#118=EDGE_LOOP($,(#237,#238,#239,#240));
#119=EDGE_LOOP($,(#241,#242,#243,#244));
#120=EDGE_LOOP($,(#245,#246,#247,#248));
#121=EDGE_LOOP($,(#249));
#122=EDGE_LOOP($,(#250));
#123=EDGE_LOOP($,(#251));
#124=EDGE_LOOP($,(#252));
#125=CIRCLE($,#280,56.5);
#126=CIRCLE($,#281,56.5);
#127=CIRCLE($,#283,51.5);
#128=CIRCLE($,#284,51.5);
#129=CIRCLE($,#286,45.);
#130=CIRCLE($,#287,45.);
#131=CIRCLE($,#289,55.);
#132=CIRCLE($,#290,55.);
#133=VERTEX_POINT($,#382);
#134=VERTEX_POINT($,#384);
#135=VERTEX_POINT($,#387);
#136=VERTEX_POINT($,#389);
#137=VERTEX_POINT($,#392);
#138=VERTEX_POINT($,#394);
#139=VERTEX_POINT($,#397);
#140=VERTEX_POINT($,#399);
#141=VERTEX_POINT($,#402);
#142=VERTEX_POINT($,#403);
#143=VERTEX_POINT($,#405);
#144=VERTEX_POINT($,#407);
#145=VERTEX_POINT($,#409);
#146=VERTEX_POINT($,#411);
#147=VERTEX_POINT($,#413);
#148=VERTEX_POINT($,#415);
#149=VERTEX_POINT($,#420);
#150=VERTEX_POINT($,#422);
#151=VERTEX_POINT($,#426);
#152=VERTEX_POINT($,#430);
#153=VERTEX_POINT($,#434);
#154=VERTEX_POINT($,#436);
#155=VERTEX_POINT($,#438);
#156=VERTEX_POINT($,#440);
#157=EDGE_CURVE($,#133,#133,#125,.T.);
#158=EDGE_CURVE($,#134,#134,#126,.T.);
#159=EDGE_CURVE($,#135,#135,#127,.T.);
#160=EDGE_CURVE($,#136,#136,#128,.T.);
#161=EDGE_CURVE($,#137,#137,#129,.T.);
#162=EDGE_CURVE($,#138,#138,#130,.T.);
#163=EDGE_CURVE($,#139,#139,#131,.T.);
#164=EDGE_CURVE($,#140,#140,#132,.T.);
#165=EDGE_CURVE($,#141,#142,#12,.T.);
#166=EDGE_CURVE($,#143,#141,#13,.T.);
#167=EDGE_CURVE($,#144,#143,#14,.T.);
#168=EDGE_CURVE($,#145,#144,#15,.T.);
#169=EDGE_CURVE($,#146,#145,#16,.T.);
#170=EDGE_CURVE($,#147,#146,#17,.T.);
#171=EDGE_CURVE($,#148,#147,#18,.T.);
#172=EDGE_CURVE($,#142,#148,#19,.T.);
#173=EDGE_CURVE($,#141,#149,#20,.T.);
#174=EDGE_CURVE($,#142,#150,#21,.T.);
#175=EDGE_CURVE($,#149,#150,#22,.T.);
#176=EDGE_CURVE($,#143,#151,#23,.T.);
#177=EDGE_CURVE($,#151,#149,#24,.T.);
#178=EDGE_CURVE($,#148,#152,#25,.T.);
#179=EDGE_CURVE($,#150,#152,#26,.T.);
#180=EDGE_CURVE($,#152,#153,#27,.T.);
#181=EDGE_CURVE($,#153,#154,#28,.T.);
#182=EDGE_CURVE($,#154,#155,#29,.T.);
#183=EDGE_CURVE($,#155,#156,#30,.T.);
#184=EDGE_CURVE($,#156,#151,#31,.T.);
#185=EDGE_CURVE($,#144,#156,#32,.T.);
#186=EDGE_CURVE($,#147,#153,#33,.T.);
#187=EDGE_CURVE($,#145,#155,#34,.T.);
#188=EDGE_CURVE($,#146,#154,#35,.T.);
#189=ORIENTED_EDGE($,*,*,#157,.F.);
#190=ORIENTED_EDGE($,*,*,#158,.T.);
#191=ORIENTED_EDGE($,*,*,#159,.F.);
#192=ORIENTED_EDGE($,*,*,#160,.T.);
#193=ORIENTED_EDGE($,*,*,#161,.F.);
#194=ORIENTED_EDGE($,*,*,#162,.T.);
#195=ORIENTED_EDGE($,*,*,#163,.T.);
#196=ORIENTED_EDGE($,*,*,#164,.F.);
#197=ORIENTED_EDGE($,*,*,#165,.F.);
#198=ORIENTED_EDGE($,*,*,#166,.F.);
#199=ORIENTED_EDGE($,*,*,#167,.F.);
#200=ORIENTED_EDGE($,*,*,#168,.F.);
#201=ORIENTED_EDGE($,*,*,#169,.F.);
#202=ORIENTED_EDGE($,*,*,#170,.F.);
#203=ORIENTED_EDGE($,*,*,#171,.F.);
#204=ORIENTED_EDGE($,*,*,#172,.F.);
#205=ORIENTED_EDGE($,*,*,#157,.T.);
#206=ORIENTED_EDGE($,*,*,#161,.T.);
#207=ORIENTED_EDGE($,*,*,#159,.T.);
#208=ORIENTED_EDGE($,*,*,#173,.F.);
#209=ORIENTED_EDGE($,*,*,#165,.T.);
#210=ORIENTED_EDGE($,*,*,#174,.T.);
#211=ORIENTED_EDGE($,*,*,#175,.F.);
#212=ORIENTED_EDGE($,*,*,#176,.F.);
#213=ORIENTED_EDGE($,*,*,#166,.T.);
#214=ORIENTED_EDGE($,*,*,#173,.T.);
#215=ORIENTED_EDGE($,*,*,#177,.F.);
#216=ORIENTED_EDGE($,*,*,#174,.F.);
#217=ORIENTED_EDGE($,*,*,#172,.T.);
#218=ORIENTED_EDGE($,*,*,#178,.T.);
#219=ORIENTED_EDGE($,*,*,#179,.F.);
#220=ORIENTED_EDGE($,*,*,#175,.T.);
#221=ORIENTED_EDGE($,*,*,#179,.T.);
#222=ORIENTED_EDGE($,*,*,#180,.T.);
#223=ORIENTED_EDGE($,*,*,#181,.T.);
#224=ORIENTED_EDGE($,*,*,#182,.T.);
#225=ORIENTED_EDGE($,*,*,#183,.T.);
#226=ORIENTED_EDGE($,*,*,#184,.T.);
#227=ORIENTED_EDGE($,*,*,#177,.T.);
#228=ORIENTED_EDGE($,*,*,#163,.F.);
#229=ORIENTED_EDGE($,*,*,#185,.F.);
#230=ORIENTED_EDGE($,*,*,#167,.T.);
#231=ORIENTED_EDGE($,*,*,#176,.T.);
#232=ORIENTED_EDGE($,*,*,#184,.F.);
#233=ORIENTED_EDGE($,*,*,#178,.F.);
#234=ORIENTED_EDGE($,*,*,#171,.T.);
#235=ORIENTED_EDGE($,*,*,#186,.T.);
#236=ORIENTED_EDGE($,*,*,#180,.F.);
#237=ORIENTED_EDGE($,*,*,#187,.F.);
#238=ORIENTED_EDGE($,*,*,#168,.T.);
#239=ORIENTED_EDGE($,*,*,#185,.T.);
#240=ORIENTED_EDGE($,*,*,#183,.F.);
#241=ORIENTED_EDGE($,*,*,#186,.F.);
#242=ORIENTED_EDGE($,*,*,#170,.T.);
#243=ORIENTED_EDGE($,*,*,#188,.T.);
#244=ORIENTED_EDGE($,*,*,#181,.F.);
#245=ORIENTED_EDGE($,*,*,#188,.F.);
#246=ORIENTED_EDGE($,*,*,#169,.T.);
#247=ORIENTED_EDGE($,*,*,#187,.T.);
#248=ORIENTED_EDGE($,*,*,#182,.F.);
#249=ORIENTED_EDGE($,*,*,#164,.T.);
#250=ORIENTED_EDGE($,*,*,#162,.F.);
#251=ORIENTED_EDGE($,*,*,#158,.F.);
#252=ORIENTED_EDGE($,*,*,#160,.F.);
#253=CYLINDRICAL_SURFACE($,#279,56.5);
#254=CYLINDRICAL_SURFACE($,#282,51.5);
#255=CYLINDRICAL_SURFACE($,#285,45.);
#256=CYLINDRICAL_SURFACE($,#288,55.);
#257=STYLED_ITEM($,(#473),#259);
#258=STYLED_ITEM($,(#472),#277);
#259=ADVANCED_FACE($,(#83,#73),#253,.T.);
#260=ADVANCED_FACE($,(#84,#74),#254,.F.);
#261=ADVANCED_FACE($,(#85,#75),#255,.F.);
#262=ADVANCED_FACE($,(#86,#76),#256,.T.);
#263=ADVANCED_FACE($,(#87,#77),#60,.T.);
#264=ADVANCED_FACE($,(#78,#79),#61,.T.);
#265=ADVANCED_FACE($,(#88),#62,.F.);
#266=ADVANCED_FACE($,(#89),#63,.F.);
#267=ADVANCED_FACE($,(#90),#64,.F.);
#268=ADVANCED_FACE($,(#91,#80),#65,.F.);
#269=ADVANCED_FACE($,(#92),#66,.F.);
#270=ADVANCED_FACE($,(#93),#67,.F.);
#271=ADVANCED_FACE($,(#94),#68,.F.);
#272=ADVANCED_FACE($,(#95),#69,.F.);
#273=ADVANCED_FACE($,(#96),#70,.F.);
#274=ADVANCED_FACE($,(#97,#81),#71,.T.);
#275=ADVANCED_FACE($,(#98,#82),#72,.F.);
#276=CLOSED_SHELL($,(#259,#260,#261,#262,#263,#264,#265,#266,#267,#268,
#269,#270,#271,#272,#273,#274,#275));
#277=MANIFOLD_SOLID_BREP('4FA',#276);
#278=AXIS2_PLACEMENT_3D('placement',#380,#304,#305);
#279=AXIS2_PLACEMENT_3D($,#381,#306,#307);
#280=AXIS2_PLACEMENT_3D($,#383,#308,#309);
#281=AXIS2_PLACEMENT_3D($,#385,#310,#311);
#282=AXIS2_PLACEMENT_3D($,#386,#312,#313);
#283=AXIS2_PLACEMENT_3D($,#388,#314,#315);
#284=AXIS2_PLACEMENT_3D($,#390,#316,#317);
#285=AXIS2_PLACEMENT_3D($,#391,#318,#319);
#286=AXIS2_PLACEMENT_3D($,#393,#320,#321);
#287=AXIS2_PLACEMENT_3D($,#395,#322,#323);
#288=AXIS2_PLACEMENT_3D($,#396,#324,#325);
#289=AXIS2_PLACEMENT_3D($,#398,#326,#327);
#290=AXIS2_PLACEMENT_3D($,#400,#328,#329);
#291=AXIS2_PLACEMENT_3D($,#401,#330,#331);
#292=AXIS2_PLACEMENT_3D($,#418,#340,#341);
#293=AXIS2_PLACEMENT_3D($,#419,#342,#343);
#294=AXIS2_PLACEMENT_3D($,#425,#347,#348);
#295=AXIS2_PLACEMENT_3D($,#429,#351,#352);
#296=AXIS2_PLACEMENT_3D($,#433,#355,#356);
#297=AXIS2_PLACEMENT_3D($,#443,#362,#363);
#298=AXIS2_PLACEMENT_3D($,#445,#365,#366);
#299=AXIS2_PLACEMENT_3D($,#447,#368,#369);
#300=AXIS2_PLACEMENT_3D($,#449,#371,#372);
#301=AXIS2_PLACEMENT_3D($,#451,#374,#375);
#302=AXIS2_PLACEMENT_3D($,#452,#376,#377);
#303=AXIS2_PLACEMENT_3D($,#453,#378,#379);
#304=DIRECTION('axis',(0.,0.,1.));
#305=DIRECTION('refdir',(1.,0.,0.));
#306=DIRECTION('center_axis',(0.,0.,-1.));
#307=DIRECTION('ref_axis',(1.,0.,0.));
#308=DIRECTION('center_axis',(0.,0.,1.));
#309=DIRECTION('ref_axis',(1.,0.,0.));
#310=DIRECTION('center_axis',(0.,0.,1.));
#311=DIRECTION('ref_axis',(1.,0.,0.));
#312=DIRECTION('center_axis',(0.,0.,-1.));
#313=DIRECTION('ref_axis',(1.,0.,0.));
#314=DIRECTION('center_axis',(0.,0.,-1.));
#315=DIRECTION('ref_axis',(1.,0.,0.));
#316=DIRECTION('center_axis',(0.,0.,-1.));
#317=DIRECTION('ref_axis',(1.,0.,0.));
#318=DIRECTION('center_axis',(0.,0.,1.));
#319=DIRECTION('ref_axis',(1.,0.,0.));
#320=DIRECTION('center_axis',(0.,0.,1.));
#321=DIRECTION('ref_axis',(-1.,0.,0.));
#322=DIRECTION('center_axis',(0.,0.,1.));
#323=DIRECTION('ref_axis',(1.,0.,0.));
#324=DIRECTION('center_axis',(0.,0.,1.));
#325=DIRECTION('ref_axis',(1.,0.,0.));
#326=DIRECTION('center_axis',(0.,0.,1.));
#327=DIRECTION('ref_axis',(1.,0.,0.));
#328=DIRECTION('center_axis',(0.,0.,1.));
#329=DIRECTION('ref_axis',(1.,0.,0.));
#330=DIRECTION('center_axis',(0.,0.,-1.));
#331=DIRECTION('ref_axis',(-1.,0.,0.));
#332=DIRECTION($,(-1.,4.488939E-011,0.));
#333=DIRECTION($,(-0.70710678110718,0.707106781265915,0.));
#334=DIRECTION($,(1.795947E-010,1.,0.));
#335=DIRECTION($,(0.707106781297639,0.707106781075456,0.));
#336=DIRECTION($,(1.,-1.346676E-010,0.));
#337=DIRECTION($,(0.707106781107142,-0.707106781265953,0.));
#338=DIRECTION($,(-8.977864E-011,-1.,0.));
#339=DIRECTION($,(-0.707106781234228,-0.707106781138867,0.));
#340=DIRECTION('center_axis',(0.,0.,-1.));
#341=DIRECTION('ref_axis',(-1.,0.,0.));
#342=DIRECTION('center_axis',(-4.489649E-011,-1.,0.));
#343=DIRECTION('ref_axis',(0.,0.,-1.));
#344=DIRECTION($,(0.,0.,1.));
#345=DIRECTION($,(0.,0.,1.));
#346=DIRECTION($,(-1.,4.488939E-011,0.));
#347=DIRECTION('center_axis',(-0.707106781266048,-0.707106781107048,0.));
#348=DIRECTION('ref_axis',(0.,0.,1.));
#349=DIRECTION($,(0.,0.,1.));
#350=DIRECTION($,(-0.70710678110718,0.707106781265915,0.));
#351=DIRECTION('center_axis',(0.707106781139048,-0.707106781234048,0.));
#352=DIRECTION('ref_axis',(0.,0.,-1.));
#353=DIRECTION($,(0.,0.,1.));
#354=DIRECTION($,(-0.707106781234228,-0.707106781138867,0.));
#355=DIRECTION('center_axis',(0.,0.,-1.));
#356=DIRECTION('ref_axis',(-1.,0.,0.));
#357=DIRECTION($,(-8.977864E-011,-1.,0.));
#358=DIRECTION($,(0.707106781107142,-0.707106781265953,0.));
#359=DIRECTION($,(1.,-1.346676E-010,0.));
#360=DIRECTION($,(0.707106781297639,0.707106781075456,0.));
#361=DIRECTION($,(1.795947E-010,1.,0.));
#362=DIRECTION('center_axis',(-1.,1.795864E-010,0.));
#363=DIRECTION('ref_axis',(0.,0.,1.));
#364=DIRECTION($,(0.,0.,1.));
#365=DIRECTION('center_axis',(1.,-8.979285E-011,0.));
#366=DIRECTION('ref_axis',(0.,0.,-1.));
#367=DIRECTION($,(0.,0.,1.));
#368=DIRECTION('center_axis',(-0.707106781075048,0.707106781298047,0.));
#369=DIRECTION('ref_axis',(0.,0.,1.));
#370=DIRECTION($,(0.,0.,1.));
#371=DIRECTION('center_axis',(0.707106781266048,0.707106781107048,0.));
#372=DIRECTION('ref_axis',(0.,0.,-1.));
#373=DIRECTION($,(0.,0.,1.));
#374=DIRECTION('center_axis',(1.346893E-010,1.,0.));
#375=DIRECTION('ref_axis',(0.,0.,1.));
#376=DIRECTION('center_axis',(0.,0.,1.));
#377=DIRECTION('ref_axis',(1.,0.,0.));
#378=DIRECTION('center_axis',(0.,0.,1.));
#379=DIRECTION('ref_axis',(1.,0.,0.));
#380=CARTESIAN_POINT('',(0.,0.,0.));
#381=CARTESIAN_POINT('Origin',(-8.415029E-010,-8.410019E-010,39.2));
#382=CARTESIAN_POINT('',(-56.5000000008415,-8.40995E-010,39.2));
#383=CARTESIAN_POINT('Origin',(-8.415029E-010,-8.410019E-010,39.2));
#384=CARTESIAN_POINT('',(-56.5000000008415,-8.40995E-010,0.));
#385=CARTESIAN_POINT('Origin',(-8.415029E-010,-8.410019E-010,0.));
#386=CARTESIAN_POINT('Origin',(-8.415029E-010,-8.410019E-010,39.2));
#387=CARTESIAN_POINT('',(-51.5000000008415,-8.409956E-010,39.2));
#388=CARTESIAN_POINT('Origin',(-8.415029E-010,-8.410019E-010,39.2));
#389=CARTESIAN_POINT('',(-51.5000000008415,-8.409956E-010,0.));
#390=CARTESIAN_POINT('Origin',(-8.415029E-010,-8.410019E-010,0.));
#391=CARTESIAN_POINT('Origin',(0.,0.,77.));
#392=CARTESIAN_POINT('',(45.,5.51091059616309E-015,39.2));
#393=CARTESIAN_POINT('Origin',(0.,0.,39.2));
#394=CARTESIAN_POINT('',(-45.,-5.510729E-015,128.));
#395=CARTESIAN_POINT('Origin',(0.,0.,128.));
#396=CARTESIAN_POINT('Origin',(0.,0.,67.));
#397=CARTESIAN_POINT('',(-55.,-6.735335E-015,67.));
#398=CARTESIAN_POINT('Origin',(0.,0.,67.));
#399=CARTESIAN_POINT('',(-55.,-6.735335E-015,128.));
#400=CARTESIAN_POINT('Origin',(0.,0.,128.));
#401=CARTESIAN_POINT('Origin',(26.509667994403,64.,39.2));
#402=CARTESIAN_POINT('',(26.509667994403,64.,39.2));
#403=CARTESIAN_POINT('',(-26.50966798865,64.00000000238,39.2));
#404=CARTESIAN_POINT($,(26.509667994403,64.,39.2));
#405=CARTESIAN_POINT('',(64.000000005951,26.509667980036,39.2));
#406=CARTESIAN_POINT($,(64.000000005951,26.509667980036,39.2));
#407=CARTESIAN_POINT('',(63.999999996429,-26.50966800302,39.2));
#408=CARTESIAN_POINT($,(63.999999996429,-26.50966800302,39.2));
#409=CARTESIAN_POINT('',(26.509667982909,-64.00000000476,39.2));
#410=CARTESIAN_POINT($,(26.509667982909,-64.00000000476,39.2));
#411=CARTESIAN_POINT('',(-26.50966800015,-63.99999999762,39.2));
#412=CARTESIAN_POINT($,(-26.50966800015,-63.99999999762,39.2));
#413=CARTESIAN_POINT('',(-64.00000000357,-26.50966798578,39.2));
#414=CARTESIAN_POINT($,(-64.00000000357,-26.50966798578,39.2));
#415=CARTESIAN_POINT('',(-63.99999999881,26.509667997276,39.2));
#416=CARTESIAN_POINT($,(-63.99999999881,26.509667997276,39.2));
#417=CARTESIAN_POINT($,(-26.50966798865,64.00000000238,39.2));
#418=CARTESIAN_POINT('Origin',(26.509667994403,64.,39.2));
#419=CARTESIAN_POINT('Origin',(26.509667994403,64.,39.2));
#420=CARTESIAN_POINT('',(26.509667994403,64.,67.));
#421=CARTESIAN_POINT($,(26.509667994403,64.,39.2));
#422=CARTESIAN_POINT('',(-26.50966798865,64.00000000238,67.));
#423=CARTESIAN_POINT($,(-26.50966798865,64.00000000238,39.2));
#424=CARTESIAN_POINT($,(26.509667994403,64.,67.));
#425=CARTESIAN_POINT('Origin',(64.000000005951,26.509667980036,39.2));
#426=CARTESIAN_POINT('',(64.000000005951,26.509667980036,67.));
#427=CARTESIAN_POINT($,(64.000000005951,26.509667980036,39.2));
#428=CARTESIAN_POINT($,(64.000000005951,26.509667980036,67.));
#429=CARTESIAN_POINT('Origin',(-26.50966798865,64.00000000238,39.2));
#430=CARTESIAN_POINT('',(-63.99999999881,26.509667997276,67.));
#431=CARTESIAN_POINT($,(-63.99999999881,26.509667997276,39.2));
#432=CARTESIAN_POINT($,(-26.50966798865,64.00000000238,67.));
#433=CARTESIAN_POINT('Origin',(26.509667994403,64.,67.));
#434=CARTESIAN_POINT('',(-64.00000000357,-26.50966798578,67.));
#435=CARTESIAN_POINT($,(-63.99999999881,26.509667997276,67.));
#436=CARTESIAN_POINT('',(-26.50966800015,-63.99999999762,67.));
#437=CARTESIAN_POINT($,(-64.00000000357,-26.50966798578,67.));
#438=CARTESIAN_POINT('',(26.509667982909,-64.00000000476,67.));
#439=CARTESIAN_POINT($,(-26.50966800015,-63.99999999762,67.));
#440=CARTESIAN_POINT('',(63.999999996429,-26.50966800302,67.));
#441=CARTESIAN_POINT($,(26.509667982909,-64.00000000476,67.));
#442=CARTESIAN_POINT($,(63.999999996429,-26.50966800302,67.));
#443=CARTESIAN_POINT('Origin',(63.999999996429,-26.50966800302,39.2));
#444=CARTESIAN_POINT($,(63.999999996429,-26.50966800302,39.2));
#445=CARTESIAN_POINT('Origin',(-63.99999999881,26.509667997276,39.2));
#446=CARTESIAN_POINT($,(-64.00000000357,-26.50966798578,39.2));
#447=CARTESIAN_POINT('Origin',(26.509667982909,-64.00000000476,39.2));
#448=CARTESIAN_POINT($,(26.509667982909,-64.00000000476,39.2));
#449=CARTESIAN_POINT('Origin',(-64.00000000357,-26.50966798578,39.2));
#450=CARTESIAN_POINT($,(-26.50966800015,-63.99999999762,39.2));
#451=CARTESIAN_POINT('Origin',(-26.50966800015,-63.99999999762,39.2));
#452=CARTESIAN_POINT('Origin',(0.,0.,128.));
#453=CARTESIAN_POINT('Origin',(-8.415029E-010,-8.410019E-010,0.));
#454=UNCERTAINTY_MEASURE_WITH_UNIT(LENGTH_MEASURE(0.01),#456,
'DISTANCE_ACCURACY_VALUE',
'Maximum model space distance between geometric entities at asserted c
onnectivities');
#455=(
GEOMETRIC_REPRESENTATION_CONTEXT(3)
GLOBAL_UNCERTAINTY_ASSIGNED_CONTEXT((#454))
GLOBAL_UNIT_ASSIGNED_CONTEXT((#456,#459,#457))
REPRESENTATION_CONTEXT('','3D')
);
#456=(
LENGTH_UNIT()
NAMED_UNIT(*)
SI_UNIT(.MILLI.,.METRE.)
);
#457=(
NAMED_UNIT(*)
SI_UNIT($,.STERADIAN.)
SOLID_ANGLE_UNIT()
);
#458=DIMENSIONAL_EXPONENTS(0.,0.,0.,0.,0.,0.,0.);
#459=(
CONVERSION_BASED_UNIT('degree',#461)
NAMED_UNIT(#458)
PLANE_ANGLE_UNIT()
);
#460=(
NAMED_UNIT(*)
PLANE_ANGLE_UNIT()
SI_UNIT($,.RADIAN.)
);
#461=PLANE_ANGLE_MEASURE_WITH_UNIT(PLANE_ANGLE_MEASURE(0.01745329252),#460);
#462=SHAPE_DEFINITION_REPRESENTATION(#463,#464);
#463=PRODUCT_DEFINITION_SHAPE('',$,#466);
#464=SHAPE_REPRESENTATION('',(#278),#455);
#465=PRODUCT_DEFINITION_CONTEXT('3D Mechanical Parts',#469,'design');
#466=PRODUCT_DEFINITION('KIFV110090400','KIFV110090400',#467,#465);
#467=PRODUCT_DEFINITION_FORMATION('',$,#471);
#468=APPLICATION_PROTOCOL_DEFINITION('international standard',
'automotive_design',2009,#469);
#469=APPLICATION_CONTEXT(
'Core Data for Automotive Mechanical Design Process');
#470=PRODUCT_CONTEXT('3D Mechanical Parts',#469,'mechanical');
#471=PRODUCT('KIFV110090400','KIFV110090400',$,(#470));
#472=PRESENTATION_STYLE_ASSIGNMENT((#474));
#473=PRESENTATION_STYLE_ASSIGNMENT((#475));
#474=SURFACE_STYLE_USAGE(.BOTH.,#476);
#475=SURFACE_STYLE_USAGE(.BOTH.,#477);
#476=SURFACE_SIDE_STYLE($,(#478));
#477=SURFACE_SIDE_STYLE($,(#479));
#478=SURFACE_STYLE_FILL_AREA(#480);
#479=SURFACE_STYLE_FILL_AREA(#481);
#480=FILL_AREA_STYLE($,(#482));
#481=FILL_AREA_STYLE($,(#483));
#482=FILL_AREA_STYLE_COLOUR($,#484);
#483=FILL_AREA_STYLE_COLOUR($,#485);
#484=COLOUR_RGB('',0.509803921568627,0.509803921568627,0.588235294117647);
#485=COLOUR_RGB('',1.,0.,0.);
ENDSEC;
END-ISO-10303-21;
