ISO-10303-21;
HEADER;
/* Generated by software containing ST-Developer
 * from STEP Tools, Inc. (www.steptools.com) 
 */

FILE_DESCRIPTION(
/* description */ (''),
/* implementation_level */ '2;1');

FILE_NAME(
/* name */ 'C:\\Users\\Gabriele\\Desktop\\catalogo\\TR40\\TR40110F.stp',

/* time_stamp */ '2016-10-17T15:23:25+02:00',
/* author */ ('Gabriele'),
/* organization */ (''),
/* preprocessor_version */ 'ST-DEVELOPER v16.5',
/* originating_system */ 'Autodesk Inventor 2017',
/* authorisation */ '');

FILE_SCHEMA (('AUTOMOTIVE_DESIGN { 1 0 10303 214 3 1 1 }'));
ENDSEC;

DATA;
#10=MECHANICAL_DESIGN_GEOMETRIC_PRESENTATION_REPRESENTATION('',(#13),#481);
#11=SHAPE_REPRESENTATION_RELATIONSHIP('SRR','None',#490,#12);
#12=ADVANCED_BREP_SHAPE_REPRESENTATION('',(#14),#480);
#13=STYLED_ITEM('',(#499),#14);
#14=MANIFOLD_SOLID_BREP('Solido1',#200);
#15=B_SPLINE_CURVE_WITH_KNOTS('',3,(#333,#334,#335,#336,#337,#338,#339,
#340,#341,#342,#343,#344,#345,#346,#347,#348,#349,#350,#351,#352,#353,#354,
#355,#356,#357,#358,#359,#360,#361,#362,#363,#364,#365,#366,#367,#368,#369,
#370,#371,#372,#373,#374,#375,#376,#377,#378,#379,#380,#381,#382,#383,#384,
#385,#386,#387,#388,#389,#390,#391,#392,#393,#394,#395,#396,#397,#398),
 .UNSPECIFIED.,.T.,.F.,(4,2,2,2,2,2,2,2,2,2,2,2,2,2,2,2,2,2,2,2,2,2,2,2,
2,2,2,2,2,2,2,2,4),(0.,0.449702693759091,0.899405387518182,1.34910808127727,
1.79881077503636,2.24782818445016,2.69684559386396,3.14586300327777,3.59488041269157,
4.04389782210537,4.49291523151917,4.94193264093297,5.39095005034677,5.84065274410586,
6.29035543786495,6.74005813162404,7.18976082538313,7.63946351914222,8.08916621290131,
8.5388689066604,8.98857160041949,9.43758900983329,9.88660641924709,10.3356238286609,
10.7846412380747,11.2336586474885,11.6826760569023,12.1316934663161,12.5807108757299,
13.030413569489,13.4801162632481,13.9298189570072,14.3795216507663),
 .UNSPECIFIED.);
#16=B_SPLINE_CURVE_WITH_KNOTS('',3,(#409,#410,#411,#412,#413,#414,#415,
#416,#417,#418,#419,#420,#421,#422,#423,#424,#425,#426,#427,#428,#429,#430,
#431,#432,#433,#434,#435,#436,#437,#438,#439,#440,#441,#442,#443,#444,#445,
#446,#447,#448,#449,#450,#451,#452,#453,#454,#455,#456,#457,#458,#459,#460,
#461,#462,#463,#464,#465,#466,#467,#468,#469,#470,#471,#472,#473,#474),
 .UNSPECIFIED.,.T.,.F.,(4,2,2,2,2,2,2,2,2,2,2,2,2,2,2,2,2,2,2,2,2,2,2,2,
2,2,2,2,2,2,2,2,4),(0.,0.585408530965185,1.17081706193037,1.75622559289555,
2.34163412386074,2.925803433604,3.50997274334726,4.09414205309052,4.67831136283378,
5.26248067257703,5.84664998232029,6.43081929206355,7.01498860180681,7.600397132772,
8.18580566373718,8.77121419470236,9.35662272566755,9.94203125663273,10.5274397875979,
11.1128483185631,11.6982568495283,12.2824261592715,12.8665954690148,13.4507647787581,
14.0349340885013,14.6191033982446,15.2032727079878,15.7874420177311,16.3716113274744,
16.9570198584395,17.5424283894047,18.1278369203699,18.7132454513351),
 .UNSPECIFIED.);
#17=PLANE('',#207);
#18=PLANE('',#214);
#19=PLANE('',#221);
#20=PLANE('',#228);
#21=PLANE('',#231);
#22=PLANE('',#232);
#23=CYLINDRICAL_SURFACE('',#205,55.);
#24=CYLINDRICAL_SURFACE('',#212,55.);
#25=CYLINDRICAL_SURFACE('',#219,25.);
#26=CYLINDRICAL_SURFACE('',#223,23.5);
#27=CYLINDRICAL_SURFACE('',#225,53.5);
#28=CYLINDRICAL_SURFACE('',#229,30.5);
#29=CYLINDRICAL_SURFACE('',#230,64.5);
#30=FACE_BOUND('',#65,.T.);
#31=FACE_BOUND('',#67,.T.);
#32=FACE_BOUND('',#69,.T.);
#33=FACE_BOUND('',#71,.T.);
#34=FACE_BOUND('',#73,.T.);
#35=FACE_BOUND('',#75,.T.);
#36=FACE_BOUND('',#77,.T.);
#37=FACE_BOUND('',#79,.T.);
#38=FACE_BOUND('',#81,.T.);
#39=FACE_BOUND('',#83,.T.);
#40=FACE_BOUND('',#85,.T.);
#41=FACE_BOUND('',#86,.T.);
#42=FACE_BOUND('',#88,.T.);
#43=FACE_BOUND('',#90,.T.);
#44=FACE_BOUND('',#92,.T.);
#45=FACE_BOUND('',#93,.T.);
#46=FACE_BOUND('',#95,.T.);
#47=FACE_BOUND('',#97,.T.);
#48=FACE_OUTER_BOUND('',#64,.T.);
#49=FACE_OUTER_BOUND('',#66,.T.);
#50=FACE_OUTER_BOUND('',#68,.T.);
#51=FACE_OUTER_BOUND('',#70,.T.);
#52=FACE_OUTER_BOUND('',#72,.T.);
#53=FACE_OUTER_BOUND('',#74,.T.);
#54=FACE_OUTER_BOUND('',#76,.T.);
#55=FACE_OUTER_BOUND('',#78,.T.);
#56=FACE_OUTER_BOUND('',#80,.T.);
#57=FACE_OUTER_BOUND('',#82,.T.);
#58=FACE_OUTER_BOUND('',#84,.T.);
#59=FACE_OUTER_BOUND('',#87,.T.);
#60=FACE_OUTER_BOUND('',#89,.T.);
#61=FACE_OUTER_BOUND('',#91,.T.);
#62=FACE_OUTER_BOUND('',#94,.T.);
#63=FACE_OUTER_BOUND('',#96,.T.);
#64=EDGE_LOOP('',(#147));
#65=EDGE_LOOP('',(#148));
#66=EDGE_LOOP('',(#149));
#67=EDGE_LOOP('',(#150));
#68=EDGE_LOOP('',(#151));
#69=EDGE_LOOP('',(#152));
#70=EDGE_LOOP('',(#153));
#71=EDGE_LOOP('',(#154));
#72=EDGE_LOOP('',(#155));
#73=EDGE_LOOP('',(#156));
#74=EDGE_LOOP('',(#157));
#75=EDGE_LOOP('',(#158));
#76=EDGE_LOOP('',(#159));
#77=EDGE_LOOP('',(#160));
#78=EDGE_LOOP('',(#161));
#79=EDGE_LOOP('',(#162));
#80=EDGE_LOOP('',(#163));
#81=EDGE_LOOP('',(#164));
#82=EDGE_LOOP('',(#165));
#83=EDGE_LOOP('',(#166));
#84=EDGE_LOOP('',(#167));
#85=EDGE_LOOP('',(#168));
#86=EDGE_LOOP('',(#169));
#87=EDGE_LOOP('',(#170));
#88=EDGE_LOOP('',(#171));
#89=EDGE_LOOP('',(#172));
#90=EDGE_LOOP('',(#173));
#91=EDGE_LOOP('',(#174));
#92=EDGE_LOOP('',(#175));
#93=EDGE_LOOP('',(#176));
#94=EDGE_LOOP('',(#177));
#95=EDGE_LOOP('',(#178));
#96=EDGE_LOOP('',(#179));
#97=EDGE_LOOP('',(#180));
#98=CIRCLE('',#203,55.);
#99=CIRCLE('',#204,55.5);
#100=CIRCLE('',#206,55.);
#101=CIRCLE('',#208,64.5);
#102=CIRCLE('',#210,55.);
#103=CIRCLE('',#211,55.5);
#104=CIRCLE('',#213,55.);
#105=CIRCLE('',#215,64.5);
#106=CIRCLE('',#217,25.);
#107=CIRCLE('',#218,25.5);
#108=CIRCLE('',#220,25.);
#109=CIRCLE('',#222,30.5);
#110=CIRCLE('',#224,23.5);
#111=CIRCLE('',#226,53.5);
#112=CIRCLE('',#227,53.5);
#113=VERTEX_POINT('',#299);
#114=VERTEX_POINT('',#301);
#115=VERTEX_POINT('',#304);
#116=VERTEX_POINT('',#307);
#117=VERTEX_POINT('',#310);
#118=VERTEX_POINT('',#312);
#119=VERTEX_POINT('',#315);
#120=VERTEX_POINT('',#318);
#121=VERTEX_POINT('',#321);
#122=VERTEX_POINT('',#323);
#123=VERTEX_POINT('',#326);
#124=VERTEX_POINT('',#329);
#125=VERTEX_POINT('',#332);
#126=VERTEX_POINT('',#399);
#127=VERTEX_POINT('',#402);
#128=VERTEX_POINT('',#404);
#129=VERTEX_POINT('',#408);
#130=EDGE_CURVE('',#113,#113,#98,.T.);
#131=EDGE_CURVE('',#114,#114,#99,.T.);
#132=EDGE_CURVE('',#115,#115,#100,.T.);
#133=EDGE_CURVE('',#116,#116,#101,.T.);
#134=EDGE_CURVE('',#117,#117,#102,.T.);
#135=EDGE_CURVE('',#118,#118,#103,.T.);
#136=EDGE_CURVE('',#119,#119,#104,.T.);
#137=EDGE_CURVE('',#120,#120,#105,.T.);
#138=EDGE_CURVE('',#121,#121,#106,.T.);
#139=EDGE_CURVE('',#122,#122,#107,.T.);
#140=EDGE_CURVE('',#123,#123,#108,.T.);
#141=EDGE_CURVE('',#124,#124,#109,.T.);
#142=EDGE_CURVE('',#125,#125,#15,.T.);
#143=EDGE_CURVE('',#126,#126,#110,.T.);
#144=EDGE_CURVE('',#127,#127,#111,.T.);
#145=EDGE_CURVE('',#128,#128,#112,.T.);
#146=EDGE_CURVE('',#129,#129,#16,.T.);
#147=ORIENTED_EDGE('',*,*,#130,.T.);
#148=ORIENTED_EDGE('',*,*,#131,.T.);
#149=ORIENTED_EDGE('',*,*,#132,.T.);
#150=ORIENTED_EDGE('',*,*,#130,.F.);
#151=ORIENTED_EDGE('',*,*,#133,.T.);
#152=ORIENTED_EDGE('',*,*,#131,.F.);
#153=ORIENTED_EDGE('',*,*,#134,.T.);
#154=ORIENTED_EDGE('',*,*,#135,.T.);
#155=ORIENTED_EDGE('',*,*,#136,.F.);
#156=ORIENTED_EDGE('',*,*,#134,.F.);
#157=ORIENTED_EDGE('',*,*,#137,.T.);
#158=ORIENTED_EDGE('',*,*,#135,.F.);
#159=ORIENTED_EDGE('',*,*,#138,.T.);
#160=ORIENTED_EDGE('',*,*,#139,.T.);
#161=ORIENTED_EDGE('',*,*,#140,.T.);
#162=ORIENTED_EDGE('',*,*,#138,.F.);
#163=ORIENTED_EDGE('',*,*,#141,.F.);
#164=ORIENTED_EDGE('',*,*,#139,.F.);
#165=ORIENTED_EDGE('',*,*,#142,.F.);
#166=ORIENTED_EDGE('',*,*,#143,.F.);
#167=ORIENTED_EDGE('',*,*,#144,.F.);
#168=ORIENTED_EDGE('',*,*,#142,.T.);
#169=ORIENTED_EDGE('',*,*,#145,.F.);
#170=ORIENTED_EDGE('',*,*,#140,.F.);
#171=ORIENTED_EDGE('',*,*,#143,.T.);
#172=ORIENTED_EDGE('',*,*,#141,.T.);
#173=ORIENTED_EDGE('',*,*,#146,.F.);
#174=ORIENTED_EDGE('',*,*,#133,.F.);
#175=ORIENTED_EDGE('',*,*,#137,.F.);
#176=ORIENTED_EDGE('',*,*,#146,.T.);
#177=ORIENTED_EDGE('',*,*,#136,.T.);
#178=ORIENTED_EDGE('',*,*,#145,.T.);
#179=ORIENTED_EDGE('',*,*,#132,.F.);
#180=ORIENTED_EDGE('',*,*,#144,.T.);
#181=TOROIDAL_SURFACE('',#202,55.5,0.5);
#182=TOROIDAL_SURFACE('',#209,55.5,0.5);
#183=TOROIDAL_SURFACE('',#216,25.5,0.5);
#184=ADVANCED_FACE('',(#48,#30),#181,.T.);
#185=ADVANCED_FACE('',(#49,#31),#23,.F.);
#186=ADVANCED_FACE('',(#50,#32),#17,.T.);
#187=ADVANCED_FACE('',(#51,#33),#182,.T.);
#188=ADVANCED_FACE('',(#52,#34),#24,.F.);
#189=ADVANCED_FACE('',(#53,#35),#18,.F.);
#190=ADVANCED_FACE('',(#54,#36),#183,.T.);
#191=ADVANCED_FACE('',(#55,#37),#25,.F.);
#192=ADVANCED_FACE('',(#56,#38),#19,.T.);
#193=ADVANCED_FACE('',(#57,#39),#26,.F.);
#194=ADVANCED_FACE('',(#58,#40,#41),#27,.F.);
#195=ADVANCED_FACE('',(#59,#42),#20,.T.);
#196=ADVANCED_FACE('',(#60,#43),#28,.T.);
#197=ADVANCED_FACE('',(#61,#44,#45),#29,.T.);
#198=ADVANCED_FACE('',(#62,#46),#21,.F.);
#199=ADVANCED_FACE('',(#63,#47),#22,.T.);
#200=CLOSED_SHELL('',(#184,#185,#186,#187,#188,#189,#190,#191,#192,#193,
#194,#195,#196,#197,#198,#199));
#201=AXIS2_PLACEMENT_3D('placement',#297,#233,#234);
#202=AXIS2_PLACEMENT_3D('',#298,#235,#236);
#203=AXIS2_PLACEMENT_3D('',#300,#237,#238);
#204=AXIS2_PLACEMENT_3D('',#302,#239,#240);
#205=AXIS2_PLACEMENT_3D('',#303,#241,#242);
#206=AXIS2_PLACEMENT_3D('',#305,#243,#244);
#207=AXIS2_PLACEMENT_3D('',#306,#245,#246);
#208=AXIS2_PLACEMENT_3D('',#308,#247,#248);
#209=AXIS2_PLACEMENT_3D('',#309,#249,#250);
#210=AXIS2_PLACEMENT_3D('',#311,#251,#252);
#211=AXIS2_PLACEMENT_3D('',#313,#253,#254);
#212=AXIS2_PLACEMENT_3D('',#314,#255,#256);
#213=AXIS2_PLACEMENT_3D('',#316,#257,#258);
#214=AXIS2_PLACEMENT_3D('',#317,#259,#260);
#215=AXIS2_PLACEMENT_3D('',#319,#261,#262);
#216=AXIS2_PLACEMENT_3D('',#320,#263,#264);
#217=AXIS2_PLACEMENT_3D('',#322,#265,#266);
#218=AXIS2_PLACEMENT_3D('',#324,#267,#268);
#219=AXIS2_PLACEMENT_3D('',#325,#269,#270);
#220=AXIS2_PLACEMENT_3D('',#327,#271,#272);
#221=AXIS2_PLACEMENT_3D('',#328,#273,#274);
#222=AXIS2_PLACEMENT_3D('',#330,#275,#276);
#223=AXIS2_PLACEMENT_3D('',#331,#277,#278);
#224=AXIS2_PLACEMENT_3D('',#400,#279,#280);
#225=AXIS2_PLACEMENT_3D('',#401,#281,#282);
#226=AXIS2_PLACEMENT_3D('',#403,#283,#284);
#227=AXIS2_PLACEMENT_3D('',#405,#285,#286);
#228=AXIS2_PLACEMENT_3D('',#406,#287,#288);
#229=AXIS2_PLACEMENT_3D('',#407,#289,#290);
#230=AXIS2_PLACEMENT_3D('',#475,#291,#292);
#231=AXIS2_PLACEMENT_3D('',#476,#293,#294);
#232=AXIS2_PLACEMENT_3D('',#477,#295,#296);
#233=DIRECTION('axis',(0.,0.,1.));
#234=DIRECTION('refdir',(1.,0.,0.));
#235=DIRECTION('center_axis',(0.,0.,-1.));
#236=DIRECTION('ref_axis',(-1.,0.,0.));
#237=DIRECTION('center_axis',(0.,0.,-1.));
#238=DIRECTION('ref_axis',(-1.,0.,0.));
#239=DIRECTION('center_axis',(0.,0.,1.));
#240=DIRECTION('ref_axis',(-1.,0.,0.));
#241=DIRECTION('center_axis',(0.,0.,-1.));
#242=DIRECTION('ref_axis',(-1.,0.,0.));
#243=DIRECTION('center_axis',(0.,0.,-1.));
#244=DIRECTION('ref_axis',(-1.,0.,0.));
#245=DIRECTION('center_axis',(0.,0.,1.));
#246=DIRECTION('ref_axis',(1.,0.,0.));
#247=DIRECTION('center_axis',(0.,0.,1.));
#248=DIRECTION('ref_axis',(-1.,0.,0.));
#249=DIRECTION('center_axis',(0.,0.,1.));
#250=DIRECTION('ref_axis',(1.,0.,0.));
#251=DIRECTION('center_axis',(0.,0.,1.));
#252=DIRECTION('ref_axis',(-1.,0.,0.));
#253=DIRECTION('center_axis',(0.,0.,-1.));
#254=DIRECTION('ref_axis',(-1.,0.,0.));
#255=DIRECTION('center_axis',(0.,0.,-1.));
#256=DIRECTION('ref_axis',(-1.,0.,0.));
#257=DIRECTION('center_axis',(0.,0.,-1.));
#258=DIRECTION('ref_axis',(-1.,0.,0.));
#259=DIRECTION('center_axis',(0.,0.,1.));
#260=DIRECTION('ref_axis',(1.,0.,0.));
#261=DIRECTION('center_axis',(0.,0.,-1.));
#262=DIRECTION('ref_axis',(-1.,0.,0.));
#263=DIRECTION('center_axis',(0.,-1.,0.));
#264=DIRECTION('ref_axis',(0.,0.,-1.));
#265=DIRECTION('center_axis',(0.,-1.,0.));
#266=DIRECTION('ref_axis',(-1.,0.,0.));
#267=DIRECTION('center_axis',(0.,1.,0.));
#268=DIRECTION('ref_axis',(-1.,0.,0.));
#269=DIRECTION('center_axis',(0.,-1.,0.));
#270=DIRECTION('ref_axis',(-1.,0.,0.));
#271=DIRECTION('center_axis',(0.,-1.,0.));
#272=DIRECTION('ref_axis',(-1.,0.,0.));
#273=DIRECTION('center_axis',(0.,1.,0.));
#274=DIRECTION('ref_axis',(0.,0.,1.));
#275=DIRECTION('center_axis',(0.,-1.,0.));
#276=DIRECTION('ref_axis',(1.,0.,0.));
#277=DIRECTION('center_axis',(0.,-1.,0.));
#278=DIRECTION('ref_axis',(-1.,0.,0.));
#279=DIRECTION('center_axis',(0.,-1.,0.));
#280=DIRECTION('ref_axis',(-1.,0.,0.));
#281=DIRECTION('center_axis',(0.,0.,1.));
#282=DIRECTION('ref_axis',(1.,0.,0.));
#283=DIRECTION('center_axis',(0.,0.,-1.));
#284=DIRECTION('ref_axis',(1.,0.,0.));
#285=DIRECTION('center_axis',(0.,0.,1.));
#286=DIRECTION('ref_axis',(1.,0.,0.));
#287=DIRECTION('center_axis',(0.,1.,0.));
#288=DIRECTION('ref_axis',(0.,0.,1.));
#289=DIRECTION('center_axis',(0.,-1.,0.));
#290=DIRECTION('ref_axis',(1.,0.,0.));
#291=DIRECTION('center_axis',(0.,0.,1.));
#292=DIRECTION('ref_axis',(-1.,0.,0.));
#293=DIRECTION('center_axis',(0.,0.,1.));
#294=DIRECTION('ref_axis',(1.,0.,0.));
#295=DIRECTION('center_axis',(0.,0.,1.));
#296=DIRECTION('ref_axis',(1.,0.,0.));
#297=CARTESIAN_POINT('',(0.,0.,0.));
#298=CARTESIAN_POINT('Origin',(0.,0.,117.5));
#299=CARTESIAN_POINT('',(55.,-6.73555739531044E-15,117.5));
#300=CARTESIAN_POINT('Origin',(0.,0.,117.5));
#301=CARTESIAN_POINT('',(55.5,6.79678973526781E-15,118.));
#302=CARTESIAN_POINT('Origin',(0.,0.,118.));
#303=CARTESIAN_POINT('Origin',(0.,0.,118.));
#304=CARTESIAN_POINT('',(55.,6.73555739531044E-15,57.));
#305=CARTESIAN_POINT('Origin',(0.,0.,57.));
#306=CARTESIAN_POINT('Origin',(-6.16633087748822E-15,9.18013870491085E-16,
118.));
#307=CARTESIAN_POINT('',(64.5,7.89897185450043E-15,118.));
#308=CARTESIAN_POINT('Origin',(0.,0.,118.));
#309=CARTESIAN_POINT('Origin',(0.,0.,-117.5));
#310=CARTESIAN_POINT('',(55.,6.73555739531044E-15,-117.5));
#311=CARTESIAN_POINT('Origin',(0.,0.,-117.5));
#312=CARTESIAN_POINT('',(55.5,-6.79678973526781E-15,-118.));
#313=CARTESIAN_POINT('Origin',(0.,0.,-118.));
#314=CARTESIAN_POINT('Origin',(0.,0.,-118.));
#315=CARTESIAN_POINT('',(55.,6.73555739531044E-15,-57.));
#316=CARTESIAN_POINT('Origin',(0.,0.,-57.));
#317=CARTESIAN_POINT('Origin',(-6.16633087748822E-15,9.18013870491085E-16,
-118.));
#318=CARTESIAN_POINT('',(64.5,7.89897185450043E-15,-118.));
#319=CARTESIAN_POINT('Origin',(0.,0.,-118.));
#320=CARTESIAN_POINT('Origin',(0.,87.5,0.));
#321=CARTESIAN_POINT('',(25.,87.5,3.06161699786838E-15));
#322=CARTESIAN_POINT('Origin',(0.,87.5,0.));
#323=CARTESIAN_POINT('',(25.5,88.,-3.12284933782575E-15));
#324=CARTESIAN_POINT('Origin',(0.,88.,0.));
#325=CARTESIAN_POINT('Origin',(0.,88.,0.));
#326=CARTESIAN_POINT('',(25.,57.,-3.06161699786838E-15));
#327=CARTESIAN_POINT('Origin',(0.,57.,0.));
#328=CARTESIAN_POINT('Origin',(3.11264394783286E-16,88.,0.));
#329=CARTESIAN_POINT('',(-30.5,88.,3.73517273739943E-15));
#330=CARTESIAN_POINT('Origin',(0.,88.,0.));
#331=CARTESIAN_POINT('Origin',(0.,57.,0.));
#332=CARTESIAN_POINT('',(23.5,48.0624593627917,5.55111512312578E-16));
#333=CARTESIAN_POINT('Ctrl Pts',(23.5,48.0624593627917,5.55111512312578E-16));
#334=CARTESIAN_POINT('Ctrl Pts',(23.5,48.0624593627917,-1.49900897919697));
#335=CARTESIAN_POINT('Ctrl Pts',(23.3542877516233,48.1345991931642,-3.0413162425633));
#336=CARTESIAN_POINT('Ctrl Pts',(22.7492119344166,48.4235041265433,-6.09472867300695));
#337=CARTESIAN_POINT('Ctrl Pts',(22.2900644274625,48.6398733630327,-7.6059140942763));
#338=CARTESIAN_POINT('Ctrl Pts',(21.0853042016425,49.1741205043699,-10.4931852283431));
#339=CARTESIAN_POINT('Ctrl Pts',(20.338735875482,49.4917786811681,-11.8719558877182));
#340=CARTESIAN_POINT('Ctrl Pts',(18.6210632308222,50.1632967219262,-14.4174726643903));
#341=CARTESIAN_POINT('Ctrl Pts',(17.6497600504304,50.5164965539871,-15.5842586653373));
#342=CARTESIAN_POINT('Ctrl Pts',(15.5858324337226,51.1909043319293,-17.6481862820452));
#343=CARTESIAN_POINT('Ctrl Pts',(14.4198109909573,51.5368175720596,-18.6192801144938));
#344=CARTESIAN_POINT('Ctrl Pts',(11.8739298469627,52.182222110866,-20.3376087852669));
#345=CARTESIAN_POINT('Ctrl Pts',(10.4940255402556,52.4811808646812,-21.084977515756));
#346=CARTESIAN_POINT('Ctrl Pts',(7.60443228750338,52.9770849292186,-22.2906587822494));
#347=CARTESIAN_POINT('Ctrl Pts',(6.09208852850242,53.1741010666951,-22.749930971358));
#348=CARTESIAN_POINT('Ctrl Pts',(3.0382605443303,53.4356392284967,-23.3546970588975));
#349=CARTESIAN_POINT('Ctrl Pts',(1.496724698046,53.5,-23.5));
#350=CARTESIAN_POINT('Ctrl Pts',(-1.496724698046,53.5,-23.5));
#351=CARTESIAN_POINT('Ctrl Pts',(-3.03826054433031,53.4356392284967,-23.3546970588975));
#352=CARTESIAN_POINT('Ctrl Pts',(-6.09208852850242,53.1741010666951,-22.749930971358));
#353=CARTESIAN_POINT('Ctrl Pts',(-7.60443228750339,52.9770849292186,-22.2906587822494));
#354=CARTESIAN_POINT('Ctrl Pts',(-10.4940255402556,52.4811808646812,-21.084977515756));
#355=CARTESIAN_POINT('Ctrl Pts',(-11.8739298469627,52.182222110866,-20.3376087852669));
#356=CARTESIAN_POINT('Ctrl Pts',(-14.4198109909573,51.5368175720596,-18.6192801144938));
#357=CARTESIAN_POINT('Ctrl Pts',(-15.5858324337226,51.1909043319293,-17.6481862820452));
#358=CARTESIAN_POINT('Ctrl Pts',(-17.6497600504304,50.5164965539871,-15.5842586653373));
#359=CARTESIAN_POINT('Ctrl Pts',(-18.6210632308222,50.1632967219263,-14.4174726643903));
#360=CARTESIAN_POINT('Ctrl Pts',(-20.338735875482,49.4917786811681,-11.8719558877182));
#361=CARTESIAN_POINT('Ctrl Pts',(-21.0853042016425,49.1741205043699,-10.4931852283432));
#362=CARTESIAN_POINT('Ctrl Pts',(-22.2900644274625,48.6398733630327,-7.6059140942763));
#363=CARTESIAN_POINT('Ctrl Pts',(-22.7492119344166,48.4235041265433,-6.09472867300695));
#364=CARTESIAN_POINT('Ctrl Pts',(-23.3542877516233,48.1345991931642,-3.0413162425633));
#365=CARTESIAN_POINT('Ctrl Pts',(-23.5,48.0624593627917,-1.49900897919697));
#366=CARTESIAN_POINT('Ctrl Pts',(-23.5,48.0624593627917,1.49900897919697));
#367=CARTESIAN_POINT('Ctrl Pts',(-23.3542877516233,48.1345991931642,3.0413162425633));
#368=CARTESIAN_POINT('Ctrl Pts',(-22.7492119344166,48.4235041265433,6.09472867300695));
#369=CARTESIAN_POINT('Ctrl Pts',(-22.2900644274625,48.6398733630327,7.6059140942763));
#370=CARTESIAN_POINT('Ctrl Pts',(-21.0853042016425,49.1741205043699,10.4931852283431));
#371=CARTESIAN_POINT('Ctrl Pts',(-20.338735875482,49.4917786811681,11.8719558877182));
#372=CARTESIAN_POINT('Ctrl Pts',(-18.6210632308222,50.1632967219263,14.4174726643903));
#373=CARTESIAN_POINT('Ctrl Pts',(-17.6497600504304,50.5164965539871,15.5842586653373));
#374=CARTESIAN_POINT('Ctrl Pts',(-15.5858324337226,51.1909043319293,17.6481862820452));
#375=CARTESIAN_POINT('Ctrl Pts',(-14.4198109909573,51.5368175720596,18.6192801144938));
#376=CARTESIAN_POINT('Ctrl Pts',(-11.8739298469627,52.182222110866,20.3376087852669));
#377=CARTESIAN_POINT('Ctrl Pts',(-10.4940255402556,52.4811808646812,21.084977515756));
#378=CARTESIAN_POINT('Ctrl Pts',(-7.60443228750338,52.9770849292186,22.2906587822494));
#379=CARTESIAN_POINT('Ctrl Pts',(-6.09208852850241,53.1741010666951,22.749930971358));
#380=CARTESIAN_POINT('Ctrl Pts',(-3.0382605443303,53.4356392284967,23.3546970588975));
#381=CARTESIAN_POINT('Ctrl Pts',(-1.496724698046,53.5,23.5));
#382=CARTESIAN_POINT('Ctrl Pts',(1.496724698046,53.5,23.5));
#383=CARTESIAN_POINT('Ctrl Pts',(3.0382605443303,53.4356392284967,23.3546970588975));
#384=CARTESIAN_POINT('Ctrl Pts',(6.09208852850241,53.1741010666951,22.749930971358));
#385=CARTESIAN_POINT('Ctrl Pts',(7.60443228750338,52.9770849292186,22.2906587822494));
#386=CARTESIAN_POINT('Ctrl Pts',(10.4940255402556,52.4811808646812,21.084977515756));
#387=CARTESIAN_POINT('Ctrl Pts',(11.8739298469627,52.182222110866,20.3376087852669));
#388=CARTESIAN_POINT('Ctrl Pts',(14.4198109909573,51.5368175720596,18.6192801144938));
#389=CARTESIAN_POINT('Ctrl Pts',(15.5858324337226,51.1909043319293,17.6481862820452));
#390=CARTESIAN_POINT('Ctrl Pts',(17.6497600504304,50.5164965539871,15.5842586653373));
#391=CARTESIAN_POINT('Ctrl Pts',(18.6210632308222,50.1632967219262,14.4174726643903));
#392=CARTESIAN_POINT('Ctrl Pts',(20.338735875482,49.4917786811681,11.8719558877182));
#393=CARTESIAN_POINT('Ctrl Pts',(21.0853042016425,49.1741205043699,10.4931852283431));
#394=CARTESIAN_POINT('Ctrl Pts',(22.2900644274625,48.6398733630327,7.6059140942763));
#395=CARTESIAN_POINT('Ctrl Pts',(22.7492119344166,48.4235041265434,6.09472867300695));
#396=CARTESIAN_POINT('Ctrl Pts',(23.3542877516233,48.1345991931642,3.04131624256331));
#397=CARTESIAN_POINT('Ctrl Pts',(23.5,48.0624593627917,1.49900897919697));
#398=CARTESIAN_POINT('Ctrl Pts',(23.5,48.0624593627917,-8.32667268468867E-16));
#399=CARTESIAN_POINT('',(23.5,57.,-2.87791997799628E-15));
#400=CARTESIAN_POINT('Origin',(0.,57.,0.));
#401=CARTESIAN_POINT('Origin',(0.,0.,-57.));
#402=CARTESIAN_POINT('',(-53.5,6.55186037543834E-15,57.));
#403=CARTESIAN_POINT('Origin',(0.,0.,57.));
#404=CARTESIAN_POINT('',(-53.5,6.55186037543834E-15,-57.));
#405=CARTESIAN_POINT('Origin',(0.,0.,-57.));
#406=CARTESIAN_POINT('Origin',(-1.43937264275587E-15,57.,0.));
#407=CARTESIAN_POINT('Origin',(0.,88.,0.));
#408=CARTESIAN_POINT('',(30.5,56.8330889535313,0.));
#409=CARTESIAN_POINT('Ctrl Pts',(30.5,56.8330889535313,0.));
#410=CARTESIAN_POINT('Ctrl Pts',(30.5,56.8330889535313,1.95136176988395));
#411=CARTESIAN_POINT('Ctrl Pts',(30.309766948853,56.9365054633313,3.95690642032408));
#412=CARTESIAN_POINT('Ctrl Pts',(29.5220801151718,57.3488832655309,7.92375336384388));
#413=CARTESIAN_POINT('Ctrl Pts',(28.9249301437149,57.6572150508684,9.88518139321585));
#414=CARTESIAN_POINT('Ctrl Pts',(27.3602645904306,58.4159379766344,13.6302784947213));
#415=CARTESIAN_POINT('Ctrl Pts',(26.3915060131819,58.8659821435442,15.4175121220879));
#416=CARTESIAN_POINT('Ctrl Pts',(24.1640698377643,59.8148240147358,18.7165434585083));
#417=CARTESIAN_POINT('Ctrl Pts',(22.9051043457711,60.3127087236441,20.2284093066083));
#418=CARTESIAN_POINT('Ctrl Pts',(20.2312423856648,61.2613658140714,22.9022712667146));
#419=CARTESIAN_POINT('Ctrl Pts',(18.7207674563787,61.747144112169,24.1608451509623));
#420=CARTESIAN_POINT('Ctrl Pts',(15.4211227171502,62.6527406762772,26.3894400646395));
#421=CARTESIAN_POINT('Ctrl Pts',(13.6318733462324,63.07184057001,27.3596351473881));
#422=CARTESIAN_POINT('Ctrl Pts',(9.88259950312386,63.7669136284482,28.9259719526238));
#423=CARTESIAN_POINT('Ctrl Pts',(7.91906026257759,64.0430140726979,29.5233626356375));
#424=CARTESIAN_POINT('Ctrl Pts',(3.95141212613786,64.409669376379,30.3105064124923));
#425=CARTESIAN_POINT('Ctrl Pts',(1.94723103247753,64.5,30.5));
#426=CARTESIAN_POINT('Ctrl Pts',(-1.94723103247753,64.5,30.5));
#427=CARTESIAN_POINT('Ctrl Pts',(-3.95141212613785,64.409669376379,30.3105064124923));
#428=CARTESIAN_POINT('Ctrl Pts',(-7.91906026257759,64.0430140726979,29.5233626356375));
#429=CARTESIAN_POINT('Ctrl Pts',(-9.88259950312386,63.7669136284482,28.9259719526238));
#430=CARTESIAN_POINT('Ctrl Pts',(-13.6318733462324,63.07184057001,27.3596351473881));
#431=CARTESIAN_POINT('Ctrl Pts',(-15.4211227171502,62.6527406762772,26.3894400646395));
#432=CARTESIAN_POINT('Ctrl Pts',(-18.7207674563787,61.747144112169,24.1608451509623));
#433=CARTESIAN_POINT('Ctrl Pts',(-20.2312423856648,61.2613658140714,22.9022712667146));
#434=CARTESIAN_POINT('Ctrl Pts',(-22.9051043457711,60.3127087236441,20.2284093066083));
#435=CARTESIAN_POINT('Ctrl Pts',(-24.1640698377643,59.8148240147358,18.7165434585083));
#436=CARTESIAN_POINT('Ctrl Pts',(-26.3915060131819,58.8659821435442,15.4175121220879));
#437=CARTESIAN_POINT('Ctrl Pts',(-27.3602645904306,58.4159379766344,13.6302784947213));
#438=CARTESIAN_POINT('Ctrl Pts',(-28.9249301437149,57.6572150508684,9.88518139321585));
#439=CARTESIAN_POINT('Ctrl Pts',(-29.5220801151718,57.3488832655309,7.92375336384387));
#440=CARTESIAN_POINT('Ctrl Pts',(-30.309766948853,56.9365054633313,3.95690642032408));
#441=CARTESIAN_POINT('Ctrl Pts',(-30.5,56.8330889535313,1.95136176988395));
#442=CARTESIAN_POINT('Ctrl Pts',(-30.5,56.8330889535313,-1.95136176988395));
#443=CARTESIAN_POINT('Ctrl Pts',(-30.309766948853,56.9365054633313,-3.95690642032408));
#444=CARTESIAN_POINT('Ctrl Pts',(-29.5220801151718,57.3488832655309,-7.92375336384388));
#445=CARTESIAN_POINT('Ctrl Pts',(-28.9249301437149,57.6572150508684,-9.88518139321586));
#446=CARTESIAN_POINT('Ctrl Pts',(-27.3602645904306,58.4159379766344,-13.6302784947213));
#447=CARTESIAN_POINT('Ctrl Pts',(-26.3915060131819,58.8659821435442,-15.4175121220879));
#448=CARTESIAN_POINT('Ctrl Pts',(-24.1640698377643,59.8148240147358,-18.7165434585083));
#449=CARTESIAN_POINT('Ctrl Pts',(-22.9051043457711,60.3127087236441,-20.2284093066083));
#450=CARTESIAN_POINT('Ctrl Pts',(-20.2312423856648,61.2613658140714,-22.9022712667146));
#451=CARTESIAN_POINT('Ctrl Pts',(-18.7207674563787,61.747144112169,-24.1608451509623));
#452=CARTESIAN_POINT('Ctrl Pts',(-15.4211227171502,62.6527406762772,-26.3894400646395));
#453=CARTESIAN_POINT('Ctrl Pts',(-13.6318733462324,63.07184057001,-27.3596351473881));
#454=CARTESIAN_POINT('Ctrl Pts',(-9.88259950312387,63.7669136284482,-28.9259719526238));
#455=CARTESIAN_POINT('Ctrl Pts',(-7.9190602625776,64.0430140726979,-29.5233626356375));
#456=CARTESIAN_POINT('Ctrl Pts',(-3.95141212613787,64.409669376379,-30.3105064124923));
#457=CARTESIAN_POINT('Ctrl Pts',(-1.94723103247754,64.5,-30.5));
#458=CARTESIAN_POINT('Ctrl Pts',(1.94723103247753,64.5,-30.5));
#459=CARTESIAN_POINT('Ctrl Pts',(3.95141212613785,64.409669376379,-30.3105064124923));
#460=CARTESIAN_POINT('Ctrl Pts',(7.91906026257759,64.0430140726979,-29.5233626356375));
#461=CARTESIAN_POINT('Ctrl Pts',(9.88259950312386,63.7669136284482,-28.9259719526238));
#462=CARTESIAN_POINT('Ctrl Pts',(13.6318733462324,63.07184057001,-27.3596351473881));
#463=CARTESIAN_POINT('Ctrl Pts',(15.4211227171502,62.6527406762772,-26.3894400646395));
#464=CARTESIAN_POINT('Ctrl Pts',(18.7207674563787,61.747144112169,-24.1608451509623));
#465=CARTESIAN_POINT('Ctrl Pts',(20.2312423856648,61.2613658140714,-22.9022712667146));
#466=CARTESIAN_POINT('Ctrl Pts',(22.9051043457711,60.3127087236441,-20.2284093066083));
#467=CARTESIAN_POINT('Ctrl Pts',(24.1640698377643,59.8148240147358,-18.7165434585083));
#468=CARTESIAN_POINT('Ctrl Pts',(26.3915060131819,58.8659821435442,-15.4175121220879));
#469=CARTESIAN_POINT('Ctrl Pts',(27.3602645904306,58.4159379766344,-13.6302784947213));
#470=CARTESIAN_POINT('Ctrl Pts',(28.9249301437149,57.6572150508684,-9.88518139321585));
#471=CARTESIAN_POINT('Ctrl Pts',(29.5220801151718,57.3488832655309,-7.92375336384388));
#472=CARTESIAN_POINT('Ctrl Pts',(30.309766948853,56.9365054633313,-3.95690642032409));
#473=CARTESIAN_POINT('Ctrl Pts',(30.5,56.8330889535313,-1.95136176988395));
#474=CARTESIAN_POINT('Ctrl Pts',(30.5,56.8330889535313,-1.66533453693773E-15));
#475=CARTESIAN_POINT('Origin',(0.,0.,0.));
#476=CARTESIAN_POINT('Origin',(-4.86761606027648E-15,0.,-57.));
#477=CARTESIAN_POINT('Origin',(-4.86761606027648E-15,0.,57.));
#478=UNCERTAINTY_MEASURE_WITH_UNIT(LENGTH_MEASURE(0.01),#482,
'DISTANCE_ACCURACY_VALUE',
'Maximum model space distance between geometric entities at asserted c
onnectivities');
#479=UNCERTAINTY_MEASURE_WITH_UNIT(LENGTH_MEASURE(1.E-6),#482,
'DISTANCE_ACCURACY_VALUE',
'Maximum model space distance between geometric entities at asserted c
onnectivities');
#480=(
GEOMETRIC_REPRESENTATION_CONTEXT(3)
GLOBAL_UNCERTAINTY_ASSIGNED_CONTEXT((#478))
GLOBAL_UNIT_ASSIGNED_CONTEXT((#482,#485,#483))
REPRESENTATION_CONTEXT('','3D')
);
#481=(
GEOMETRIC_REPRESENTATION_CONTEXT(3)
GLOBAL_UNCERTAINTY_ASSIGNED_CONTEXT((#479))
GLOBAL_UNIT_ASSIGNED_CONTEXT((#482,#485,#483))
REPRESENTATION_CONTEXT('','3D')
);
#482=(
LENGTH_UNIT()
NAMED_UNIT(*)
SI_UNIT(.MILLI.,.METRE.)
);
#483=(
NAMED_UNIT(*)
SI_UNIT($,.STERADIAN.)
SOLID_ANGLE_UNIT()
);
#484=DIMENSIONAL_EXPONENTS(0.,0.,0.,0.,0.,0.,0.);
#485=(
CONVERSION_BASED_UNIT('degree',#487)
NAMED_UNIT(#484)
PLANE_ANGLE_UNIT()
);
#486=(
NAMED_UNIT(*)
PLANE_ANGLE_UNIT()
SI_UNIT($,.RADIAN.)
);
#487=PLANE_ANGLE_MEASURE_WITH_UNIT(PLANE_ANGLE_MEASURE(0.01745329252),#486);
#488=SHAPE_DEFINITION_REPRESENTATION(#489,#490);
#489=PRODUCT_DEFINITION_SHAPE('',$,#492);
#490=SHAPE_REPRESENTATION('',(#201),#480);
#491=PRODUCT_DEFINITION_CONTEXT('part definition',#496,'design');
#492=PRODUCT_DEFINITION('TR40110F','TR40110F',#493,#491);
#493=PRODUCT_DEFINITION_FORMATION('',$,#498);
#494=PRODUCT_RELATED_PRODUCT_CATEGORY('TR40110F','TR40110F',(#498));
#495=APPLICATION_PROTOCOL_DEFINITION('international standard',
'automotive_design',2009,#496);
#496=APPLICATION_CONTEXT(
'Core Data for Automotive Mechanical Design Process');
#497=PRODUCT_CONTEXT('part definition',#496,'mechanical');
#498=PRODUCT('TR40110F','TR40110F',$,(#497));
#499=PRESENTATION_STYLE_ASSIGNMENT((#500));
#500=SURFACE_STYLE_USAGE(.BOTH.,#501);
#501=SURFACE_SIDE_STYLE('',(#502));
#502=SURFACE_STYLE_FILL_AREA(#503);
#503=FILL_AREA_STYLE('',(#504));
#504=FILL_AREA_STYLE_COLOUR('',#505);
#505=COLOUR_RGB('',0.8,0.8,0.8);
ENDSEC;
END-ISO-10303-21;
