ISO-10303-21;
HEADER;
/* Generated by software containing ST-Developer
 * from STEP Tools, Inc. (www.steptools.com) 
 */

FILE_DESCRIPTION(
/* description */ (''),
/* implementation_level */ '2;1');

FILE_NAME(
/* name */ 'C:\\Users\\Gabriele\\Desktop\\catalogo\\EL50\\EL500320.stp',

/* time_stamp */ '2016-11-09T11:08:51+01:00',
/* author */ ('Gabriele'),
/* organization */ (''),
/* preprocessor_version */ 'ST-DEVELOPER v16.5',
/* originating_system */ 'Autodesk Inventor 2017',
/* authorisation */ '');

FILE_SCHEMA (('AUTOMOTIVE_DESIGN { 1 0 10303 214 3 1 1 }'));
ENDSEC;

DATA;
#10=MECHANICAL_DESIGN_GEOMETRIC_PRESENTATION_REPRESENTATION('',(#13),#458);
#11=SHAPE_REPRESENTATION_RELATIONSHIP('SRR','None',#467,#12);
#12=ADVANCED_BREP_SHAPE_REPRESENTATION('',(#14),#457);
#13=STYLED_ITEM('',(#476),#14);
#14=MANIFOLD_SOLID_BREP('Solido1',#211);
#15=PLANE('',#222);
#16=PLANE('',#232);
#17=PLANE('',#244);
#18=PLANE('',#245);
#19=TOROIDAL_SURFACE('',#219,16.5,0.5);
#20=TOROIDAL_SURFACE('',#226,20.,0.5);
#21=TOROIDAL_SURFACE('',#229,16.5,0.5);
#22=TOROIDAL_SURFACE('',#236,20.,0.5);
#23=TOROIDAL_SURFACE('',#240,17.,15.5);
#24=FACE_BOUND('',#82,.T.);
#25=FACE_BOUND('',#84,.T.);
#26=FACE_BOUND('',#86,.T.);
#27=FACE_BOUND('',#88,.T.);
#28=FACE_BOUND('',#90,.T.);
#29=FACE_BOUND('',#92,.T.);
#30=FACE_BOUND('',#94,.T.);
#31=FACE_BOUND('',#96,.T.);
#32=FACE_BOUND('',#98,.T.);
#33=FACE_BOUND('',#100,.T.);
#34=FACE_BOUND('',#102,.T.);
#35=FACE_BOUND('',#104,.T.);
#36=FACE_BOUND('',#106,.T.);
#37=FACE_BOUND('',#108,.T.);
#38=FACE_BOUND('',#110,.T.);
#39=CYLINDRICAL_SURFACE('',#217,20.5);
#40=CYLINDRICAL_SURFACE('',#224,16.);
#41=CYLINDRICAL_SURFACE('',#228,20.5);
#42=CYLINDRICAL_SURFACE('',#234,16.);
#43=CYLINDRICAL_SURFACE('',#237,15.5);
#44=CYLINDRICAL_SURFACE('',#242,15.5);
#45=CIRCLE('',#215,20.5);
#46=CIRCLE('',#216,20.5);
#47=CIRCLE('',#218,20.5);
#48=CIRCLE('',#220,16.);
#49=CIRCLE('',#221,16.5);
#50=CIRCLE('',#223,20.);
#51=CIRCLE('',#225,16.);
#52=CIRCLE('',#227,20.5);
#53=CIRCLE('',#230,16.);
#54=CIRCLE('',#231,16.5);
#55=CIRCLE('',#233,20.);
#56=CIRCLE('',#235,16.);
#57=CIRCLE('',#238,15.5);
#58=CIRCLE('',#239,15.5);
#59=CIRCLE('',#241,15.5);
#60=CIRCLE('',#243,15.5);
#61=(
BOUNDED_SURFACE()
B_SPLINE_SURFACE(2,2,((#383,#384,#385),(#386,#387,#388),(#389,#390,#391),
(#392,#393,#394),(#395,#396,#397),(#398,#399,#400),(#401,#402,#403),(#404,
#405,#406),(#407,#408,#409)),.UNSPECIFIED.,.F.,.F.,.F.)
B_SPLINE_SURFACE_WITH_KNOTS((3,2,2,2,3),(3,3),(-2.51630308712009,-1.25815154356004,
2.39808173319034E-14,1.25815154356008,2.51630308712014),(0.,1.57079632679496),
 .UNSPECIFIED.)
GEOMETRIC_REPRESENTATION_ITEM()
RATIONAL_B_SPLINE_SURFACE(((1.,0.707106781186526,1.),(0.808571667337935,
0.57174650904995,0.808571667337935),(1.,0.707106781186526,1.),(0.808571667337935,
0.57174650904995,0.808571667337935),(1.,0.707106781186526,1.),(0.808571667337934,
0.571746509049949,0.808571667337934),(1.,0.707106781186526,1.),(0.808571667337934,
0.571746509049949,0.808571667337934),(1.,0.707106781186526,1.)))
REPRESENTATION_ITEM('')
SURFACE()
);
#62=FACE_OUTER_BOUND('',#79,.T.);
#63=FACE_OUTER_BOUND('',#80,.T.);
#64=FACE_OUTER_BOUND('',#81,.T.);
#65=FACE_OUTER_BOUND('',#83,.T.);
#66=FACE_OUTER_BOUND('',#85,.T.);
#67=FACE_OUTER_BOUND('',#87,.T.);
#68=FACE_OUTER_BOUND('',#89,.T.);
#69=FACE_OUTER_BOUND('',#91,.T.);
#70=FACE_OUTER_BOUND('',#93,.T.);
#71=FACE_OUTER_BOUND('',#95,.T.);
#72=FACE_OUTER_BOUND('',#97,.T.);
#73=FACE_OUTER_BOUND('',#99,.T.);
#74=FACE_OUTER_BOUND('',#101,.T.);
#75=FACE_OUTER_BOUND('',#103,.T.);
#76=FACE_OUTER_BOUND('',#105,.T.);
#77=FACE_OUTER_BOUND('',#107,.T.);
#78=FACE_OUTER_BOUND('',#109,.T.);
#79=EDGE_LOOP('',(#153,#154,#155,#156));
#80=EDGE_LOOP('',(#157,#158,#159,#160));
#81=EDGE_LOOP('',(#161));
#82=EDGE_LOOP('',(#162,#163));
#83=EDGE_LOOP('',(#164));
#84=EDGE_LOOP('',(#165));
#85=EDGE_LOOP('',(#166));
#86=EDGE_LOOP('',(#167));
#87=EDGE_LOOP('',(#168));
#88=EDGE_LOOP('',(#169));
#89=EDGE_LOOP('',(#170));
#90=EDGE_LOOP('',(#171));
#91=EDGE_LOOP('',(#172,#173));
#92=EDGE_LOOP('',(#174));
#93=EDGE_LOOP('',(#175));
#94=EDGE_LOOP('',(#176));
#95=EDGE_LOOP('',(#177));
#96=EDGE_LOOP('',(#178));
#97=EDGE_LOOP('',(#179));
#98=EDGE_LOOP('',(#180));
#99=EDGE_LOOP('',(#181));
#100=EDGE_LOOP('',(#182));
#101=EDGE_LOOP('',(#183));
#102=EDGE_LOOP('',(#184));
#103=EDGE_LOOP('',(#185));
#104=EDGE_LOOP('',(#186));
#105=EDGE_LOOP('',(#187));
#106=EDGE_LOOP('',(#188));
#107=EDGE_LOOP('',(#189));
#108=EDGE_LOOP('',(#190));
#109=EDGE_LOOP('',(#191));
#110=EDGE_LOOP('',(#192));
#111=ELLIPSE('',#213,29.3470611816584,20.5);
#112=ELLIPSE('',#214,29.3470611816584,20.5);
#113=B_SPLINE_CURVE_WITH_KNOTS('',3,(#347,#348,#349,#350,#351,#352,#353,
#354,#355,#356,#357,#358,#359,#360,#361,#362),.UNSPECIFIED.,.F.,.F.,(4,
3,3,3,3,4),(-0.000293937330827707,0.0123427540522162,0.0244589322533956,
0.0306525312140475,0.0423653226807804,0.061666634907665),.UNSPECIFIED.);
#114=B_SPLINE_CURVE_WITH_KNOTS('',3,(#366,#367,#368,#369,#370,#371,#372,
#373,#374,#375,#376,#377,#378,#379,#380,#381),.UNSPECIFIED.,.F.,.F.,(4,
3,3,3,3,4),(-0.00029393734950435,0.0123427543694626,0.0244589329333369,
0.0306525320423297,0.0423653238763704,0.0616666364760809),.UNSPECIFIED.);
#115=VERTEX_POINT('',#345);
#116=VERTEX_POINT('',#346);
#117=VERTEX_POINT('',#363);
#118=VERTEX_POINT('',#365);
#119=VERTEX_POINT('',#413);
#120=VERTEX_POINT('',#416);
#121=VERTEX_POINT('',#418);
#122=VERTEX_POINT('',#421);
#123=VERTEX_POINT('',#424);
#124=VERTEX_POINT('',#427);
#125=VERTEX_POINT('',#431);
#126=VERTEX_POINT('',#433);
#127=VERTEX_POINT('',#436);
#128=VERTEX_POINT('',#439);
#129=VERTEX_POINT('',#443);
#130=VERTEX_POINT('',#445);
#131=VERTEX_POINT('',#448);
#132=VERTEX_POINT('',#451);
#133=EDGE_CURVE('',#115,#116,#113,.T.);
#134=EDGE_CURVE('',#115,#117,#111,.T.);
#135=EDGE_CURVE('',#118,#117,#114,.T.);
#136=EDGE_CURVE('',#118,#116,#112,.T.);
#137=EDGE_CURVE('',#117,#115,#45,.T.);
#138=EDGE_CURVE('',#118,#116,#46,.T.);
#139=EDGE_CURVE('',#119,#119,#47,.T.);
#140=EDGE_CURVE('',#120,#120,#48,.T.);
#141=EDGE_CURVE('',#121,#121,#49,.T.);
#142=EDGE_CURVE('',#122,#122,#50,.T.);
#143=EDGE_CURVE('',#123,#123,#51,.T.);
#144=EDGE_CURVE('',#124,#124,#52,.T.);
#145=EDGE_CURVE('',#125,#125,#53,.T.);
#146=EDGE_CURVE('',#126,#126,#54,.T.);
#147=EDGE_CURVE('',#127,#127,#55,.T.);
#148=EDGE_CURVE('',#128,#128,#56,.T.);
#149=EDGE_CURVE('',#129,#129,#57,.T.);
#150=EDGE_CURVE('',#130,#130,#58,.T.);
#151=EDGE_CURVE('',#131,#131,#59,.T.);
#152=EDGE_CURVE('',#132,#132,#60,.T.);
#153=ORIENTED_EDGE('',*,*,#133,.F.);
#154=ORIENTED_EDGE('',*,*,#134,.T.);
#155=ORIENTED_EDGE('',*,*,#135,.F.);
#156=ORIENTED_EDGE('',*,*,#136,.T.);
#157=ORIENTED_EDGE('',*,*,#135,.T.);
#158=ORIENTED_EDGE('',*,*,#137,.T.);
#159=ORIENTED_EDGE('',*,*,#133,.T.);
#160=ORIENTED_EDGE('',*,*,#138,.F.);
#161=ORIENTED_EDGE('',*,*,#139,.F.);
#162=ORIENTED_EDGE('',*,*,#134,.F.);
#163=ORIENTED_EDGE('',*,*,#137,.F.);
#164=ORIENTED_EDGE('',*,*,#140,.T.);
#165=ORIENTED_EDGE('',*,*,#141,.T.);
#166=ORIENTED_EDGE('',*,*,#142,.F.);
#167=ORIENTED_EDGE('',*,*,#141,.F.);
#168=ORIENTED_EDGE('',*,*,#143,.F.);
#169=ORIENTED_EDGE('',*,*,#140,.F.);
#170=ORIENTED_EDGE('',*,*,#144,.T.);
#171=ORIENTED_EDGE('',*,*,#142,.T.);
#172=ORIENTED_EDGE('',*,*,#136,.F.);
#173=ORIENTED_EDGE('',*,*,#138,.T.);
#174=ORIENTED_EDGE('',*,*,#144,.F.);
#175=ORIENTED_EDGE('',*,*,#145,.T.);
#176=ORIENTED_EDGE('',*,*,#146,.T.);
#177=ORIENTED_EDGE('',*,*,#147,.F.);
#178=ORIENTED_EDGE('',*,*,#146,.F.);
#179=ORIENTED_EDGE('',*,*,#148,.T.);
#180=ORIENTED_EDGE('',*,*,#145,.F.);
#181=ORIENTED_EDGE('',*,*,#147,.T.);
#182=ORIENTED_EDGE('',*,*,#139,.T.);
#183=ORIENTED_EDGE('',*,*,#149,.F.);
#184=ORIENTED_EDGE('',*,*,#150,.F.);
#185=ORIENTED_EDGE('',*,*,#150,.T.);
#186=ORIENTED_EDGE('',*,*,#151,.F.);
#187=ORIENTED_EDGE('',*,*,#152,.F.);
#188=ORIENTED_EDGE('',*,*,#151,.T.);
#189=ORIENTED_EDGE('',*,*,#143,.T.);
#190=ORIENTED_EDGE('',*,*,#149,.T.);
#191=ORIENTED_EDGE('',*,*,#148,.F.);
#192=ORIENTED_EDGE('',*,*,#152,.T.);
#193=B_SPLINE_SURFACE_WITH_KNOTS('',3,3,((#315,#316,#317,#318,#319,#320),
(#321,#322,#323,#324,#325,#326),(#327,#328,#329,#330,#331,#332),(#333,#334,
#335,#336,#337,#338),(#339,#340,#341,#342,#343,#344)),.UNSPECIFIED.,.F.,
 .F.,.F.,(4,1,4),(4,1,1,4),(0.,0.5,1.),(-0.629321204466564,-0.0899030292095262,
0.269709087628499,0.629321204466525),.UNSPECIFIED.);
#194=ADVANCED_FACE('',(#62),#193,.T.);
#195=ADVANCED_FACE('',(#63),#61,.F.);
#196=ADVANCED_FACE('',(#64,#24),#39,.T.);
#197=ADVANCED_FACE('',(#65,#25),#19,.T.);
#198=ADVANCED_FACE('',(#66,#26),#15,.T.);
#199=ADVANCED_FACE('',(#67,#27),#40,.F.);
#200=ADVANCED_FACE('',(#68,#28),#20,.T.);
#201=ADVANCED_FACE('',(#69,#29),#41,.T.);
#202=ADVANCED_FACE('',(#70,#30),#21,.T.);
#203=ADVANCED_FACE('',(#71,#31),#16,.F.);
#204=ADVANCED_FACE('',(#72,#32),#42,.F.);
#205=ADVANCED_FACE('',(#73,#33),#22,.T.);
#206=ADVANCED_FACE('',(#74,#34),#43,.F.);
#207=ADVANCED_FACE('',(#75,#35),#23,.F.);
#208=ADVANCED_FACE('',(#76,#36),#44,.F.);
#209=ADVANCED_FACE('',(#77,#37),#17,.T.);
#210=ADVANCED_FACE('',(#78,#38),#18,.F.);
#211=CLOSED_SHELL('',(#194,#195,#196,#197,#198,#199,#200,#201,#202,#203,
#204,#205,#206,#207,#208,#209,#210));
#212=AXIS2_PLACEMENT_3D('placement',#314,#246,#247);
#213=AXIS2_PLACEMENT_3D('',#364,#248,#249);
#214=AXIS2_PLACEMENT_3D('',#382,#250,#251);
#215=AXIS2_PLACEMENT_3D('',#410,#252,#253);
#216=AXIS2_PLACEMENT_3D('',#411,#254,#255);
#217=AXIS2_PLACEMENT_3D('',#412,#256,#257);
#218=AXIS2_PLACEMENT_3D('',#414,#258,#259);
#219=AXIS2_PLACEMENT_3D('',#415,#260,#261);
#220=AXIS2_PLACEMENT_3D('',#417,#262,#263);
#221=AXIS2_PLACEMENT_3D('',#419,#264,#265);
#222=AXIS2_PLACEMENT_3D('',#420,#266,#267);
#223=AXIS2_PLACEMENT_3D('',#422,#268,#269);
#224=AXIS2_PLACEMENT_3D('',#423,#270,#271);
#225=AXIS2_PLACEMENT_3D('',#425,#272,#273);
#226=AXIS2_PLACEMENT_3D('',#426,#274,#275);
#227=AXIS2_PLACEMENT_3D('',#428,#276,#277);
#228=AXIS2_PLACEMENT_3D('',#429,#278,#279);
#229=AXIS2_PLACEMENT_3D('',#430,#280,#281);
#230=AXIS2_PLACEMENT_3D('',#432,#282,#283);
#231=AXIS2_PLACEMENT_3D('',#434,#284,#285);
#232=AXIS2_PLACEMENT_3D('',#435,#286,#287);
#233=AXIS2_PLACEMENT_3D('',#437,#288,#289);
#234=AXIS2_PLACEMENT_3D('',#438,#290,#291);
#235=AXIS2_PLACEMENT_3D('',#440,#292,#293);
#236=AXIS2_PLACEMENT_3D('',#441,#294,#295);
#237=AXIS2_PLACEMENT_3D('',#442,#296,#297);
#238=AXIS2_PLACEMENT_3D('',#444,#298,#299);
#239=AXIS2_PLACEMENT_3D('',#446,#300,#301);
#240=AXIS2_PLACEMENT_3D('',#447,#302,#303);
#241=AXIS2_PLACEMENT_3D('',#449,#304,#305);
#242=AXIS2_PLACEMENT_3D('',#450,#306,#307);
#243=AXIS2_PLACEMENT_3D('',#452,#308,#309);
#244=AXIS2_PLACEMENT_3D('',#453,#310,#311);
#245=AXIS2_PLACEMENT_3D('',#454,#312,#313);
#246=DIRECTION('axis',(0.,0.,1.));
#247=DIRECTION('refdir',(1.,0.,0.));
#248=DIRECTION('center_axis',(0.715574205880785,0.698536724788385,0.));
#249=DIRECTION('ref_axis',(0.698536724788385,-0.715574205880785,0.));
#250=DIRECTION('center_axis',(-0.698536724788385,-0.715574205880785,-7.56616151615914E-17));
#251=DIRECTION('ref_axis',(0.715574205880785,-0.698536724788385,0.));
#252=DIRECTION('center_axis',(0.,1.,0.));
#253=DIRECTION('ref_axis',(-1.,0.,0.));
#254=DIRECTION('center_axis',(1.,6.12323399573677E-17,0.));
#255=DIRECTION('ref_axis',(-6.12323399573676E-17,1.,0.));
#256=DIRECTION('center_axis',(0.,1.,0.));
#257=DIRECTION('ref_axis',(-1.,0.,0.));
#258=DIRECTION('center_axis',(0.,-1.,0.));
#259=DIRECTION('ref_axis',(-1.,0.,0.));
#260=DIRECTION('center_axis',(-1.,-6.12323399573677E-17,0.));
#261=DIRECTION('ref_axis',(0.,0.,1.));
#262=DIRECTION('center_axis',(-1.,-6.12323399573677E-17,0.));
#263=DIRECTION('ref_axis',(-6.07153216591882E-17,1.,0.));
#264=DIRECTION('center_axis',(1.,6.12323399573677E-17,0.));
#265=DIRECTION('ref_axis',(-6.12323399573677E-17,1.,0.));
#266=DIRECTION('center_axis',(1.,6.12323399573677E-17,0.));
#267=DIRECTION('ref_axis',(0.,0.,1.));
#268=DIRECTION('center_axis',(-1.,-6.12323399573677E-17,0.));
#269=DIRECTION('ref_axis',(-6.12323399573677E-17,1.,0.));
#270=DIRECTION('center_axis',(1.,2.22044604925031E-16,0.));
#271=DIRECTION('ref_axis',(-2.22044604925031E-16,1.,0.));
#272=DIRECTION('center_axis',(1.,2.22044604925031E-16,0.));
#273=DIRECTION('ref_axis',(-2.22044604925031E-16,1.,0.));
#274=DIRECTION('center_axis',(1.,6.12323399573677E-17,0.));
#275=DIRECTION('ref_axis',(0.,0.,-1.));
#276=DIRECTION('center_axis',(1.,6.12323399573677E-17,0.));
#277=DIRECTION('ref_axis',(-6.09268733026E-17,1.,0.));
#278=DIRECTION('center_axis',(1.,0.,0.));
#279=DIRECTION('ref_axis',(0.,1.,0.));
#280=DIRECTION('center_axis',(0.,1.,0.));
#281=DIRECTION('ref_axis',(0.,0.,1.));
#282=DIRECTION('center_axis',(0.,1.,0.));
#283=DIRECTION('ref_axis',(-1.,0.,0.));
#284=DIRECTION('center_axis',(0.,-1.,0.));
#285=DIRECTION('ref_axis',(-1.,0.,0.));
#286=DIRECTION('center_axis',(0.,1.,0.));
#287=DIRECTION('ref_axis',(0.,0.,1.));
#288=DIRECTION('center_axis',(0.,1.,0.));
#289=DIRECTION('ref_axis',(-1.,0.,0.));
#290=DIRECTION('center_axis',(0.,1.,0.));
#291=DIRECTION('ref_axis',(-1.,0.,0.));
#292=DIRECTION('center_axis',(0.,1.,0.));
#293=DIRECTION('ref_axis',(-1.,0.,0.));
#294=DIRECTION('center_axis',(0.,1.,0.));
#295=DIRECTION('ref_axis',(0.,0.,1.));
#296=DIRECTION('center_axis',(1.,0.,0.));
#297=DIRECTION('ref_axis',(0.,1.,0.));
#298=DIRECTION('center_axis',(-1.,-2.22044604925031E-16,0.));
#299=DIRECTION('ref_axis',(0.,1.,0.));
#300=DIRECTION('center_axis',(1.,6.12323399573677E-17,0.));
#301=DIRECTION('ref_axis',(-6.12323399573677E-17,1.,0.));
#302=DIRECTION('center_axis',(0.,0.,-1.));
#303=DIRECTION('ref_axis',(-1.,0.,0.));
#304=DIRECTION('center_axis',(0.,1.,0.));
#305=DIRECTION('ref_axis',(-1.,0.,0.));
#306=DIRECTION('center_axis',(0.,1.,0.));
#307=DIRECTION('ref_axis',(-1.,0.,0.));
#308=DIRECTION('center_axis',(0.,1.,0.));
#309=DIRECTION('ref_axis',(-1.,0.,0.));
#310=DIRECTION('center_axis',(1.,2.22044604925031E-16,0.));
#311=DIRECTION('ref_axis',(0.,0.,1.));
#312=DIRECTION('center_axis',(0.,1.,0.));
#313=DIRECTION('ref_axis',(0.,0.,1.));
#314=CARTESIAN_POINT('',(0.,0.,0.));
#315=CARTESIAN_POINT('Ctrl Pts',(16.5727582346174,22.0230281499041,-12.0662208042503));
#316=CARTESIAN_POINT('Ctrl Pts',(18.7423378374431,19.8005319713997,-9.08633846895248));
#317=CARTESIAN_POINT('Ctrl Pts',(20.9789092075234,17.509410080098,-3.12637633543962));
#318=CARTESIAN_POINT('Ctrl Pts',(20.1865789816,18.3210654334829,5.58251466908284));
#319=CARTESIAN_POINT('Ctrl Pts',(18.0191446365016,20.5413640309008,10.0796325807177));
#320=CARTESIAN_POINT('Ctrl Pts',(16.5727582346179,22.0230281499037,12.0662208042496));
#321=CARTESIAN_POINT('Ctrl Pts',(16.6030382358844,22.1104300902866,-12.0246317144695));
#322=CARTESIAN_POINT('Ctrl Pts',(18.7639082546827,19.9066339404939,-9.04060137918983));
#323=CARTESIAN_POINT('Ctrl Pts',(20.9718196209255,17.6477245180341,-3.10155203444251));
#324=CARTESIAN_POINT('Ctrl Pts',(20.1915104620354,18.4467005996933,5.54294254822565));
#325=CARTESIAN_POINT('Ctrl Pts',(18.043618248417,20.6412326570911,10.0352781576157));
#326=CARTESIAN_POINT('Ctrl Pts',(16.6030382358849,22.1104300902861,12.0246317144689));
#327=CARTESIAN_POINT('Ctrl Pts',(16.7150178918991,22.284982108101,-11.9790743049527));
#328=CARTESIAN_POINT('Ctrl Pts',(18.8818570613957,20.1181429386043,-8.98953884479212));
#329=CARTESIAN_POINT('Ctrl Pts',(21.0773885618647,17.9226114381353,-3.07268753184723));
#330=CARTESIAN_POINT('Ctrl Pts',(20.3032398047132,18.6967601952869,5.497206453923));
#331=CARTESIAN_POINT('Ctrl Pts',(18.1595773382306,20.8404226617694,9.98605066484492));
#332=CARTESIAN_POINT('Ctrl Pts',(16.7150178918995,22.2849821081005,11.979074304952));
#333=CARTESIAN_POINT('Ctrl Pts',(16.8895699097134,22.3969617641156,-12.0246317144695));
#334=CARTESIAN_POINT('Ctrl Pts',(19.0933660595061,20.2360917453173,-9.04060137918983));
#335=CARTESIAN_POINT('Ctrl Pts',(21.3522754819659,18.0281803790746,-3.10155203444251));
#336=CARTESIAN_POINT('Ctrl Pts',(20.5532994003067,18.8084895379646,5.54294254822565));
#337=CARTESIAN_POINT('Ctrl Pts',(18.3587673429089,20.956381751583,10.0352781576157));
#338=CARTESIAN_POINT('Ctrl Pts',(16.8895699097139,22.3969617641151,12.0246317144689));
#339=CARTESIAN_POINT('Ctrl Pts',(16.9769718500959,22.4272417653826,-12.0662208042503));
#340=CARTESIAN_POINT('Ctrl Pts',(19.1994680286003,20.2576621625569,-9.08633846895248));
#341=CARTESIAN_POINT('Ctrl Pts',(21.490589919902,18.0210907924766,-3.12637633543962));
#342=CARTESIAN_POINT('Ctrl Pts',(20.6789345665171,18.8134210184,5.58251466908284));
#343=CARTESIAN_POINT('Ctrl Pts',(18.4586359690992,20.9808553634984,10.0796325807177));
#344=CARTESIAN_POINT('Ctrl Pts',(16.9769718500963,22.4272417653821,12.0662208042496));
#345=CARTESIAN_POINT('',(16.5952380952381,22.,12.0352844819871));
#346=CARTESIAN_POINT('',(17.,22.4047619047619,12.035284481987));
#347=CARTESIAN_POINT('Ctrl Pts',(16.5952376576132,22.0000004482987,12.0352843303736));
#348=CARTESIAN_POINT('Ctrl Pts',(16.6017141075576,22.0406522278961,12.0263527703567));
#349=CARTESIAN_POINT('Ctrl Pts',(16.61333794976,22.0806108027285,12.0189931789993));
#350=CARTESIAN_POINT('Ctrl Pts',(16.6299808368388,22.1188846347337,12.0133455059088));
#351=CARTESIAN_POINT('Ctrl Pts',(16.6459381930419,22.1555819437808,12.0079304639875));
#352=CARTESIAN_POINT('Ctrl Pts',(16.6663323834963,22.1903237851898,12.0041478940638));
#353=CARTESIAN_POINT('Ctrl Pts',(16.6909149140371,22.2222484993504,12.0021920393786));
#354=CARTESIAN_POINT('Ctrl Pts',(16.7034811154481,22.2385679090818,12.00119223735));
#355=CARTESIAN_POINT('Ctrl Pts',(16.7170377557298,22.2540097463191,12.0006812997358));
#356=CARTESIAN_POINT('Ctrl Pts',(16.7315140974723,22.2684859025277,12.0006811723016));
#357=CARTESIAN_POINT('Ctrl Pts',(16.7588904860808,22.2958619402706,12.0006809313093));
#358=CARTESIAN_POINT('Ctrl Pts',(16.7895504728316,22.31979440515,12.0024973462603));
#359=CARTESIAN_POINT('Ctrl Pts',(16.8228170130416,22.3399029618654,12.0059620326367));
#360=CARTESIAN_POINT('Ctrl Pts',(16.877636385616,22.3730395145565,12.011671431093));
#361=CARTESIAN_POINT('Ctrl Pts',(16.9378641576434,22.3948632242387,12.0216326278802));
#362=CARTESIAN_POINT('Ctrl Pts',(16.9999995516966,22.4047623423914,12.0352843303799));
#363=CARTESIAN_POINT('',(16.5952380952381,22.,-12.0352844819871));
#364=CARTESIAN_POINT('Origin',(0.,39.,0.));
#365=CARTESIAN_POINT('',(17.,22.4047619047619,-12.0352844819871));
#366=CARTESIAN_POINT('Ctrl Pts',(16.9999991259825,22.4047627579694,-12.0352840923314));
#367=CARTESIAN_POINT('Ctrl Pts',(16.9593475604524,22.3982860959545,-12.0263527225491));
#368=CARTESIAN_POINT('Ctrl Pts',(16.9193890840134,22.3866621601252,-12.0189931572119));
#369=CARTESIAN_POINT('Ctrl Pts',(16.8811153032001,22.3700192234476,-12.0133454980265));
#370=CARTESIAN_POINT('Ctrl Pts',(16.8444180431132,22.3540618196353,-12.0079304694193));
#371=CARTESIAN_POINT('Ctrl Pts',(16.8096762087513,22.3336676221443,-12.004147894635));
#372=CARTESIAN_POINT('Ctrl Pts',(16.7777514979383,22.3090850882361,-12.0021920396637));
#373=CARTESIAN_POINT('Ctrl Pts',(16.7614320900157,22.2965188851789,-12.0011922374948));
#374=CARTESIAN_POINT('Ctrl Pts',(16.7459902530395,22.2829622447716,-12.0006812998256));
#375=CARTESIAN_POINT('Ctrl Pts',(16.7315140969008,22.2684859030992,-12.0006811723915));
#376=CARTESIAN_POINT('Ctrl Pts',(16.7041380590873,22.2411095144206,-12.0006809313992));
#377=CARTESIAN_POINT('Ctrl Pts',(16.680205595458,22.2104495261895,-12.0024973472918));
#378=CARTESIAN_POINT('Ctrl Pts',(16.6600970247788,22.1771830001512,-12.0059620331217));
#379=CARTESIAN_POINT('Ctrl Pts',(16.6269604494762,22.1223636515902,-12.0116714306085));
#380=CARTESIAN_POINT('Ctrl Pts',(16.6051366845844,22.062135942513,-12.0216326802485));
#381=CARTESIAN_POINT('Ctrl Pts',(16.595237242026,22.0000008740221,-12.0352840923377));
#382=CARTESIAN_POINT('Origin',(2.22044604925031E-15,39.,0.));
#383=CARTESIAN_POINT('Ctrl Pts',(16.6212700496126,22.,11.9993075607658));
#384=CARTESIAN_POINT('Ctrl Pts',(16.6212700496126,22.3787299503874,11.9993075607658));
#385=CARTESIAN_POINT('Ctrl Pts',(17.,22.3787299503874,11.9993075607658));
#386=CARTESIAN_POINT('Ctrl Pts',(7.88937241982436,22.,24.0946078783301));
#387=CARTESIAN_POINT('Ctrl Pts',(7.88937241982409,31.1106275801759,24.0946078783301));
#388=CARTESIAN_POINT('Ctrl Pts',(17.,31.1106275801756,24.0946078783301));
#389=CARTESIAN_POINT('Ctrl Pts',(-6.305313790088,22.,19.50623023571));
#390=CARTESIAN_POINT('Ctrl Pts',(-6.30531379008871,45.3053137900887,19.50623023571));
#391=CARTESIAN_POINT('Ctrl Pts',(17.,45.305313790088,19.50623023571));
#392=CARTESIAN_POINT('Ctrl Pts',(-20.5000000000004,22.,14.9178525930899));
#393=CARTESIAN_POINT('Ctrl Pts',(-20.5000000000015,59.5000000000015,14.9178525930899));
#394=CARTESIAN_POINT('Ctrl Pts',(17.,59.5000000000004,14.9178525930899));
#395=CARTESIAN_POINT('Ctrl Pts',(-20.5,22.,-4.91606755304019E-13));
#396=CARTESIAN_POINT('Ctrl Pts',(-20.5000000000011,59.5000000000012,-4.91606755304019E-13));
#397=CARTESIAN_POINT('Ctrl Pts',(17.,59.5,-4.91606755304019E-13));
#398=CARTESIAN_POINT('Ctrl Pts',(-20.4999999999996,22.,-14.9178525930908));
#399=CARTESIAN_POINT('Ctrl Pts',(-20.5000000000008,59.5000000000008,-14.9178525930908));
#400=CARTESIAN_POINT('Ctrl Pts',(17.,59.4999999999996,-14.9178525930908));
#401=CARTESIAN_POINT('Ctrl Pts',(-6.30531379008707,22.,-19.5062302357103));
#402=CARTESIAN_POINT('Ctrl Pts',(-6.30531379008778,45.3053137900878,-19.5062302357103));
#403=CARTESIAN_POINT('Ctrl Pts',(17.,45.3053137900871,-19.5062302357103));
#404=CARTESIAN_POINT('Ctrl Pts',(7.88937241982552,22.,-24.0946078783297));
#405=CARTESIAN_POINT('Ctrl Pts',(7.88937241982524,31.1106275801748,-24.0946078783297));
#406=CARTESIAN_POINT('Ctrl Pts',(17.,31.1106275801745,-24.0946078783297));
#407=CARTESIAN_POINT('Ctrl Pts',(16.6212700496132,22.,-11.999307560765));
#408=CARTESIAN_POINT('Ctrl Pts',(16.6212700496132,22.3787299503868,-11.999307560765));
#409=CARTESIAN_POINT('Ctrl Pts',(17.,22.3787299503868,-11.999307560765));
#410=CARTESIAN_POINT('Origin',(0.,22.,0.));
#411=CARTESIAN_POINT('Origin',(17.,39.,0.));
#412=CARTESIAN_POINT('Origin',(0.,0.,0.));
#413=CARTESIAN_POINT('',(20.5,0.5,2.51052593825207E-15));
#414=CARTESIAN_POINT('Origin',(0.,0.5,0.));
#415=CARTESIAN_POINT('Origin',(38.5,39.,0.));
#416=CARTESIAN_POINT('',(38.5,23.,1.95943487863577E-15));
#417=CARTESIAN_POINT('Origin',(38.5,39.,0.));
#418=CARTESIAN_POINT('',(39.,22.5,-2.02066721859313E-15));
#419=CARTESIAN_POINT('Origin',(39.,39.,0.));
#420=CARTESIAN_POINT('Origin',(39.,39.,0.));
#421=CARTESIAN_POINT('',(39.,19.,2.44929359829471E-15));
#422=CARTESIAN_POINT('Origin',(39.,39.,0.));
#423=CARTESIAN_POINT('Origin',(39.,39.,0.));
#424=CARTESIAN_POINT('',(20.,23.,1.95943487863577E-15));
#425=CARTESIAN_POINT('Origin',(20.,39.,0.));
#426=CARTESIAN_POINT('Origin',(38.5,39.,0.));
#427=CARTESIAN_POINT('',(38.5,18.5,-2.51052593825207E-15));
#428=CARTESIAN_POINT('Origin',(38.5,39.,0.));
#429=CARTESIAN_POINT('Origin',(17.,39.,0.));
#430=CARTESIAN_POINT('Origin',(0.,0.5,0.));
#431=CARTESIAN_POINT('',(16.,0.5,-1.95943487863577E-15));
#432=CARTESIAN_POINT('Origin',(0.,0.5,0.));
#433=CARTESIAN_POINT('',(16.5,0.,2.02066721859313E-15));
#434=CARTESIAN_POINT('Origin',(0.,0.,0.));
#435=CARTESIAN_POINT('Origin',(-9.31306771033303E-16,0.,0.));
#436=CARTESIAN_POINT('',(20.,0.,-2.44929359829471E-15));
#437=CARTESIAN_POINT('Origin',(0.,0.,0.));
#438=CARTESIAN_POINT('Origin',(0.,0.,0.));
#439=CARTESIAN_POINT('',(16.,19.,1.95943487863577E-15));
#440=CARTESIAN_POINT('Origin',(0.,19.,0.));
#441=CARTESIAN_POINT('Origin',(0.,0.5,0.));
#442=CARTESIAN_POINT('Origin',(17.,39.,0.));
#443=CARTESIAN_POINT('',(20.,23.5,1.8982025386784E-15));
#444=CARTESIAN_POINT('Origin',(20.,39.,0.));
#445=CARTESIAN_POINT('',(17.,54.5,-3.44169137633799E-15));
#446=CARTESIAN_POINT('Origin',(17.,39.,0.));
#447=CARTESIAN_POINT('Origin',(17.,22.,0.));
#448=CARTESIAN_POINT('',(-15.5,22.,-3.44169137633799E-15));
#449=CARTESIAN_POINT('Origin',(0.,22.,0.));
#450=CARTESIAN_POINT('Origin',(0.,0.,0.));
#451=CARTESIAN_POINT('',(15.5,19.,-1.8982025386784E-15));
#452=CARTESIAN_POINT('Origin',(0.,19.,0.));
#453=CARTESIAN_POINT('Origin',(20.,39.,-2.31296463463574E-16));
#454=CARTESIAN_POINT('Origin',(-1.55106502066776E-15,19.,-2.31296463463574E-16));
#455=UNCERTAINTY_MEASURE_WITH_UNIT(LENGTH_MEASURE(0.01),#459,
'DISTANCE_ACCURACY_VALUE',
'Maximum model space distance between geometric entities at asserted c
onnectivities');
#456=UNCERTAINTY_MEASURE_WITH_UNIT(LENGTH_MEASURE(1.E-6),#459,
'DISTANCE_ACCURACY_VALUE',
'Maximum model space distance between geometric entities at asserted c
onnectivities');
#457=(
GEOMETRIC_REPRESENTATION_CONTEXT(3)
GLOBAL_UNCERTAINTY_ASSIGNED_CONTEXT((#455))
GLOBAL_UNIT_ASSIGNED_CONTEXT((#459,#462,#460))
REPRESENTATION_CONTEXT('','3D')
);
#458=(
GEOMETRIC_REPRESENTATION_CONTEXT(3)
GLOBAL_UNCERTAINTY_ASSIGNED_CONTEXT((#456))
GLOBAL_UNIT_ASSIGNED_CONTEXT((#459,#462,#460))
REPRESENTATION_CONTEXT('','3D')
);
#459=(
LENGTH_UNIT()
NAMED_UNIT(*)
SI_UNIT(.MILLI.,.METRE.)
);
#460=(
NAMED_UNIT(*)
SI_UNIT($,.STERADIAN.)
SOLID_ANGLE_UNIT()
);
#461=DIMENSIONAL_EXPONENTS(0.,0.,0.,0.,0.,0.,0.);
#462=(
CONVERSION_BASED_UNIT('degree',#464)
NAMED_UNIT(#461)
PLANE_ANGLE_UNIT()
);
#463=(
NAMED_UNIT(*)
PLANE_ANGLE_UNIT()
SI_UNIT($,.RADIAN.)
);
#464=PLANE_ANGLE_MEASURE_WITH_UNIT(PLANE_ANGLE_MEASURE(0.01745329252),#463);
#465=SHAPE_DEFINITION_REPRESENTATION(#466,#467);
#466=PRODUCT_DEFINITION_SHAPE('',$,#469);
#467=SHAPE_REPRESENTATION('',(#212),#457);
#468=PRODUCT_DEFINITION_CONTEXT('part definition',#473,'design');
#469=PRODUCT_DEFINITION('EL500320','EL500320',#470,#468);
#470=PRODUCT_DEFINITION_FORMATION('',$,#475);
#471=PRODUCT_RELATED_PRODUCT_CATEGORY('EL500320','EL500320',(#475));
#472=APPLICATION_PROTOCOL_DEFINITION('international standard',
'automotive_design',2009,#473);
#473=APPLICATION_CONTEXT(
'Core Data for Automotive Mechanical Design Process');
#474=PRODUCT_CONTEXT('part definition',#473,'mechanical');
#475=PRODUCT('EL500320','EL500320',$,(#474));
#476=PRESENTATION_STYLE_ASSIGNMENT((#477));
#477=SURFACE_STYLE_USAGE(.BOTH.,#478);
#478=SURFACE_SIDE_STYLE('',(#479));
#479=SURFACE_STYLE_FILL_AREA(#480);
#480=FILL_AREA_STYLE('',(#481));
#481=FILL_AREA_STYLE_COLOUR('',#482);
#482=COLOUR_RGB('',0.8,0.8,0.8);
ENDSEC;
END-ISO-10303-21;
