ISO-10303-21;
HEADER;
/* Generated by software containing ST-Developer
 * from STEP Tools, Inc. (www.steptools.com) 
 */

FILE_DESCRIPTION(
/* description */ (''),
/* implementation_level */ '2;1');

FILE_NAME(
/* name */ 'C:\\Users\\mdebiase\\Desktop\\baricentro\\DIV250200.ipt.st
p',
/* time_stamp */ '2014-05-27T15:23:49+02:00',
/* author */ ('bfaro'),
/* organization */ (''),
/* preprocessor_version */ 'ST-DEVELOPER v15.2',
/* originating_system */ 'Autodesk Inventor 2014',
/* authorisation */ '');

FILE_SCHEMA (('AUTOMOTIVE_DESIGN { 1 0 10303 214 3 1 1 }'));
ENDSEC;

DATA;
#10=SHAPE_REPRESENTATION_RELATIONSHIP('SRR','None',#149,#11);
#11=ADVANCED_BREP_SHAPE_REPRESENTATION($,(#80),#140);
#12=STYLED_ITEM($,(#157),#80);
#13=PLANE($,#91);
#14=PLANE($,#92);
#15=PLANE($,#93);
#16=FACE_BOUND($,#29,.T.);
#17=FACE_BOUND($,#31,.T.);
#18=FACE_BOUND($,#33,.T.);
#19=FACE_BOUND($,#35,.T.);
#20=FACE_BOUND($,#37,.T.);
#21=FACE_BOUND($,#39,.T.);
#22=FACE_OUTER_BOUND($,#28,.T.);
#23=FACE_OUTER_BOUND($,#30,.T.);
#24=FACE_OUTER_BOUND($,#32,.T.);
#25=FACE_OUTER_BOUND($,#34,.T.);
#26=FACE_OUTER_BOUND($,#36,.T.);
#27=FACE_OUTER_BOUND($,#38,.T.);
#28=EDGE_LOOP($,(#58));
#29=EDGE_LOOP($,(#59));
#30=EDGE_LOOP($,(#60));
#31=EDGE_LOOP($,(#61));
#32=EDGE_LOOP($,(#62));
#33=EDGE_LOOP($,(#63));
#34=EDGE_LOOP($,(#64));
#35=EDGE_LOOP($,(#65));
#36=EDGE_LOOP($,(#66));
#37=EDGE_LOOP($,(#67));
#38=EDGE_LOOP($,(#68));
#39=EDGE_LOOP($,(#69));
#40=CIRCLE($,#83,87.5);
#41=CIRCLE($,#84,87.5);
#42=CIRCLE($,#86,100.);
#43=CIRCLE($,#87,100.);
#44=CIRCLE($,#89,125.);
#45=CIRCLE($,#90,125.);
#46=VERTEX_POINT($,#122);
#47=VERTEX_POINT($,#124);
#48=VERTEX_POINT($,#127);
#49=VERTEX_POINT($,#129);
#50=VERTEX_POINT($,#132);
#51=VERTEX_POINT($,#134);
#52=EDGE_CURVE($,#46,#46,#40,.T.);
#53=EDGE_CURVE($,#47,#47,#41,.T.);
#54=EDGE_CURVE($,#48,#48,#42,.T.);
#55=EDGE_CURVE($,#49,#49,#43,.T.);
#56=EDGE_CURVE($,#50,#50,#44,.T.);
#57=EDGE_CURVE($,#51,#51,#45,.T.);
#58=ORIENTED_EDGE($,*,*,#52,.F.);
#59=ORIENTED_EDGE($,*,*,#53,.F.);
#60=ORIENTED_EDGE($,*,*,#54,.T.);
#61=ORIENTED_EDGE($,*,*,#55,.F.);
#62=ORIENTED_EDGE($,*,*,#56,.F.);
#63=ORIENTED_EDGE($,*,*,#57,.T.);
#64=ORIENTED_EDGE($,*,*,#54,.F.);
#65=ORIENTED_EDGE($,*,*,#53,.T.);
#66=ORIENTED_EDGE($,*,*,#57,.F.);
#67=ORIENTED_EDGE($,*,*,#55,.T.);
#68=ORIENTED_EDGE($,*,*,#56,.T.);
#69=ORIENTED_EDGE($,*,*,#52,.T.);
#70=CYLINDRICAL_SURFACE($,#82,87.5);
#71=CYLINDRICAL_SURFACE($,#85,100.);
#72=CYLINDRICAL_SURFACE($,#88,125.);
#73=ADVANCED_FACE($,(#22,#16),#70,.F.);
#74=ADVANCED_FACE($,(#23,#17),#71,.F.);
#75=ADVANCED_FACE($,(#24,#18),#72,.T.);
#76=ADVANCED_FACE($,(#25,#19),#13,.T.);
#77=ADVANCED_FACE($,(#26,#20),#14,.T.);
#78=ADVANCED_FACE($,(#27,#21),#15,.T.);
#79=CLOSED_SHELL($,(#73,#74,#75,#76,#77,#78));
#80=MANIFOLD_SOLID_BREP('Solido1',#79);
#81=AXIS2_PLACEMENT_3D('placement',#120,#94,#95);
#82=AXIS2_PLACEMENT_3D($,#121,#96,#97);
#83=AXIS2_PLACEMENT_3D($,#123,#98,#99);
#84=AXIS2_PLACEMENT_3D($,#125,#100,#101);
#85=AXIS2_PLACEMENT_3D($,#126,#102,#103);
#86=AXIS2_PLACEMENT_3D($,#128,#104,#105);
#87=AXIS2_PLACEMENT_3D($,#130,#106,#107);
#88=AXIS2_PLACEMENT_3D($,#131,#108,#109);
#89=AXIS2_PLACEMENT_3D($,#133,#110,#111);
#90=AXIS2_PLACEMENT_3D($,#135,#112,#113);
#91=AXIS2_PLACEMENT_3D($,#136,#114,#115);
#92=AXIS2_PLACEMENT_3D($,#137,#116,#117);
#93=AXIS2_PLACEMENT_3D($,#138,#118,#119);
#94=DIRECTION('axis',(0.,0.,1.));
#95=DIRECTION('refdir',(1.,0.,0.));
#96=DIRECTION('center_axis',(-1.,0.,0.));
#97=DIRECTION('ref_axis',(0.,1.,0.));
#98=DIRECTION('center_axis',(1.,0.,0.));
#99=DIRECTION('ref_axis',(0.,1.,0.));
#100=DIRECTION('center_axis',(-1.,0.,0.));
#101=DIRECTION('ref_axis',(0.,1.,0.));
#102=DIRECTION('center_axis',(-1.,0.,0.));
#103=DIRECTION('ref_axis',(0.,1.,0.));
#104=DIRECTION('center_axis',(-1.,0.,0.));
#105=DIRECTION('ref_axis',(0.,1.,0.));
#106=DIRECTION('center_axis',(-1.,0.,0.));
#107=DIRECTION('ref_axis',(0.,1.,0.));
#108=DIRECTION('center_axis',(1.,0.,0.));
#109=DIRECTION('ref_axis',(0.,-1.,0.));
#110=DIRECTION('center_axis',(-1.,0.,0.));
#111=DIRECTION('ref_axis',(0.,-1.,0.));
#112=DIRECTION('center_axis',(-1.,0.,0.));
#113=DIRECTION('ref_axis',(0.,-1.,0.));
#114=DIRECTION('center_axis',(1.,0.,0.));
#115=DIRECTION('ref_axis',(0.,0.,-1.));
#116=DIRECTION('center_axis',(1.,0.,0.));
#117=DIRECTION('ref_axis',(0.,0.,-1.));
#118=DIRECTION('center_axis',(-1.,0.,0.));
#119=DIRECTION('ref_axis',(0.,0.,1.));
#120=CARTESIAN_POINT('',(0.,0.,0.));
#121=CARTESIAN_POINT('Origin',(-49.586893,3.996169795073E-007,-2.51005607410093E-007));
#122=CARTESIAN_POINT('',(-62.086893,-87.499999600383,-2.51005607410093E-007));
#123=CARTESIAN_POINT('Origin',(-62.086893,3.996169795073E-007,-2.51005607410093E-007));
#124=CARTESIAN_POINT('',(-37.086893,-87.499999600383,-2.51005607410093E-007));
#125=CARTESIAN_POINT('Origin',(-37.086893,3.996169795073E-007,-2.51005607410093E-007));
#126=CARTESIAN_POINT('Origin',(16.413107,3.996169795073E-007,-2.51005607410093E-007));
#127=CARTESIAN_POINT('',(-37.086893,-99.999999600383,-2.51005607410093E-007));
#128=CARTESIAN_POINT('Origin',(-37.086893,3.996169795073E-007,-2.51005607410093E-007));
#129=CARTESIAN_POINT('',(69.913107,-99.999999600383,-2.51005607410093E-007));
#130=CARTESIAN_POINT('Origin',(69.913107,3.996169795073E-007,-2.51005607410093E-007));
#131=CARTESIAN_POINT('Origin',(-62.086893,3.996169795073E-007,-2.51005607410093E-007));
#132=CARTESIAN_POINT('',(-62.086893,125.000000399617,-2.51005607410093E-007));
#133=CARTESIAN_POINT('Origin',(-62.086893,3.996169795073E-007,-2.51005607410093E-007));
#134=CARTESIAN_POINT('',(69.913107,125.000000399617,-2.51005607410093E-007));
#135=CARTESIAN_POINT('Origin',(69.913107,3.996169795073E-007,-2.51005607410093E-007));
#136=CARTESIAN_POINT('Origin',(-37.086893,93.750000399617,-2.51005607410093E-007));
#137=CARTESIAN_POINT('Origin',(69.913107,-124.999999600383,-2.51005607410093E-007));
#138=CARTESIAN_POINT('Origin',(-62.086893,3.996169795073E-007,-2.51005900508972E-007));
#139=UNCERTAINTY_MEASURE_WITH_UNIT(LENGTH_MEASURE(0.01),#141,
'DISTANCE_ACCURACY_VALUE',
'Maximum model space distance between geometric entities at asserted c
onnectivities');
#140=(
GEOMETRIC_REPRESENTATION_CONTEXT(3)
GLOBAL_UNCERTAINTY_ASSIGNED_CONTEXT((#139))
GLOBAL_UNIT_ASSIGNED_CONTEXT((#141,#144,#142))
REPRESENTATION_CONTEXT('','3D')
);
#141=(
LENGTH_UNIT()
NAMED_UNIT(*)
SI_UNIT(.MILLI.,.METRE.)
);
#142=(
NAMED_UNIT(*)
SI_UNIT($,.STERADIAN.)
SOLID_ANGLE_UNIT()
);
#143=DIMENSIONAL_EXPONENTS(0.,0.,0.,0.,0.,0.,0.);
#144=(
CONVERSION_BASED_UNIT('degree',#146)
NAMED_UNIT(#143)
PLANE_ANGLE_UNIT()
);
#145=(
NAMED_UNIT(*)
PLANE_ANGLE_UNIT()
SI_UNIT($,.RADIAN.)
);
#146=PLANE_ANGLE_MEASURE_WITH_UNIT(PLANE_ANGLE_MEASURE(0.01745329252),#145);
#147=SHAPE_DEFINITION_REPRESENTATION(#148,#149);
#148=PRODUCT_DEFINITION_SHAPE('',$,#151);
#149=SHAPE_REPRESENTATION('',(#81),#140);
#150=PRODUCT_DEFINITION_CONTEXT('3D Mechanical Parts',#154,'design');
#151=PRODUCT_DEFINITION('DIV250200','DIV250200',#152,#150);
#152=PRODUCT_DEFINITION_FORMATION('',$,#156);
#153=APPLICATION_PROTOCOL_DEFINITION('international standard',
'automotive_design',2009,#154);
#154=APPLICATION_CONTEXT(
'Core Data for Automotive Mechanical Design Process');
#155=PRODUCT_CONTEXT('3D Mechanical Parts',#154,'mechanical');
#156=PRODUCT('DIV250200','DIV250200',$,(#155));
#157=PRESENTATION_STYLE_ASSIGNMENT((#158));
#158=SURFACE_STYLE_USAGE(.BOTH.,#159);
#159=SURFACE_SIDE_STYLE($,(#160));
#160=SURFACE_STYLE_FILL_AREA(#161);
#161=FILL_AREA_STYLE($,(#162));
#162=FILL_AREA_STYLE_COLOUR($,#163);
#163=COLOUR_RGB('',0.509803921568627,0.509803921568627,0.588235294117647);
ENDSEC;
END-ISO-10303-21;
