ISO-10303-21;
HEADER;
FILE_DESCRIPTION( ( 'STEP AP214' ), '1' );
FILE_NAME( 'p:/temp/worker_7/temp/exporttempdir_5052_681_Vy7Sc/format_0/22056011007(architecture400).stp', '2021-11-18T07:34:41', ( 'License CC BY-ND 4.0' ), ( 'CADENAS' ), ' ', 'PARTsolutions', ' ' );
FILE_SCHEMA( ( 'AUTOMOTIVE_DESIGN { 1 0 10303 214 1 1 1 1 }' ) );
ENDSEC;
DATA;
#1 = MECHANICAL_DESIGN_GEOMETRIC_PRESENTATION_REPRESENTATION( ' ', ( #10, #11, #12, #13, #14, #15, #16, #17, #18, #19, #20, #21, #22 ), #6 );
#2 = PRODUCT_DEFINITION_CONTEXT( '', #23, 'design' );
#3 = APPLICATION_PROTOCOL_DEFINITION( 'international standard', 'automotive_design', 2001, #23 );
#4 = PRODUCT_CATEGORY_RELATIONSHIP( 'NONE', 'NONE', #24, #25 );
#5 = SHAPE_DEFINITION_REPRESENTATION( #26, #27 );
#6 =  ( GEOMETRIC_REPRESENTATION_CONTEXT( 3 )GLOBAL_UNCERTAINTY_ASSIGNED_CONTEXT( ( #30 ) )GLOBAL_UNIT_ASSIGNED_CONTEXT( ( #32, #33, #34 ) )REPRESENTATION_CONTEXT( 'NONE', 'WORKSPACE' ) );
#10 = STYLED_ITEM( '', ( #36 ), #37 );
#11 = STYLED_ITEM( '', ( #38 ), #39 );
#12 = STYLED_ITEM( '', ( #40 ), #41 );
#13 = STYLED_ITEM( '', ( #42 ), #43 );
#14 = STYLED_ITEM( '', ( #44 ), #45 );
#15 = STYLED_ITEM( '', ( #46 ), #47 );
#16 = STYLED_ITEM( '', ( #48 ), #49 );
#17 = STYLED_ITEM( '', ( #50 ), #51 );
#18 = STYLED_ITEM( '', ( #52 ), #53 );
#19 = STYLED_ITEM( '', ( #54 ), #55 );
#20 = STYLED_ITEM( '', ( #56 ), #57 );
#21 = STYLED_ITEM( '', ( #58 ), #59 );
#22 = STYLED_ITEM( '', ( #60 ), #61 );
#23 = APPLICATION_CONTEXT( 'core data for automotive mechanical design processes' );
#24 = PRODUCT_CATEGORY( 'part', 'NONE' );
#25 = PRODUCT_RELATED_PRODUCT_CATEGORY( 'detail', ' ', ( #62 ) );
#26 = PRODUCT_DEFINITION_SHAPE( 'NONE', 'NONE', #63 );
#27 = ADVANCED_BREP_SHAPE_REPRESENTATION( '_22056011007(architecture400)', ( #64, #65 ), #6 );
#30 = UNCERTAINTY_MEASURE_WITH_UNIT( LENGTH_MEASURE( 0.00100000000000000 ), #32, '', '' );
#32 =  ( CONVERSION_BASED_UNIT( 'MILLIMETRE', #68 )LENGTH_UNIT(  )NAMED_UNIT( #71 ) );
#33 =  ( NAMED_UNIT( #73 )PLANE_ANGLE_UNIT(  )SI_UNIT( $, .RADIAN. ) );
#34 =  ( NAMED_UNIT( #73 )SI_UNIT( $, .STERADIAN. )SOLID_ANGLE_UNIT(  ) );
#36 = PRESENTATION_STYLE_ASSIGNMENT( ( #79 ) );
#37 = ADVANCED_FACE( '', ( #80, #81 ), #82, .F. );
#38 = PRESENTATION_STYLE_ASSIGNMENT( ( #83 ) );
#39 = ADVANCED_FACE( '', ( #84, #85 ), #86, .T. );
#40 = PRESENTATION_STYLE_ASSIGNMENT( ( #87 ) );
#41 = ADVANCED_FACE( '', ( #88, #89 ), #90, .F. );
#42 = PRESENTATION_STYLE_ASSIGNMENT( ( #91 ) );
#43 = ADVANCED_FACE( '', ( #92, #93 ), #94, .F. );
#44 = PRESENTATION_STYLE_ASSIGNMENT( ( #95 ) );
#45 = ADVANCED_FACE( '', ( #96, #97, #98 ), #99, .F. );
#46 = PRESENTATION_STYLE_ASSIGNMENT( ( #100 ) );
#47 = ADVANCED_FACE( '', ( #101, #102 ), #103, .T. );
#48 = PRESENTATION_STYLE_ASSIGNMENT( ( #104 ) );
#49 = ADVANCED_FACE( '', ( #105, #106 ), #107, .T. );
#50 = PRESENTATION_STYLE_ASSIGNMENT( ( #108 ) );
#51 = ADVANCED_FACE( '', ( #109, #110 ), #111, .F. );
#52 = PRESENTATION_STYLE_ASSIGNMENT( ( #112 ) );
#53 = ADVANCED_FACE( '', ( #113, #114 ), #115, .T. );
#54 = PRESENTATION_STYLE_ASSIGNMENT( ( #116 ) );
#55 = ADVANCED_FACE( '', ( #117, #118 ), #119, .T. );
#56 = PRESENTATION_STYLE_ASSIGNMENT( ( #120 ) );
#57 = ADVANCED_FACE( '', ( #121, #122 ), #123, .T. );
#58 = PRESENTATION_STYLE_ASSIGNMENT( ( #124 ) );
#59 = ADVANCED_FACE( '', ( #125, #126, #127 ), #128, .T. );
#60 = PRESENTATION_STYLE_ASSIGNMENT( ( #129 ) );
#61 = ADVANCED_FACE( '', ( #130, #131 ), #132, .F. );
#62 = PRODUCT( '_22056011007(architecture400)', '_22056011007(architecture400)', 'PART-_22056011007(architecture400)-DESC', ( #133 ) );
#63 = PRODUCT_DEFINITION( 'NONE', 'NONE', #134, #2 );
#64 = MANIFOLD_SOLID_BREP( '_22056011007(architecture400)', #135 );
#65 = AXIS2_PLACEMENT_3D( '', #136, #137, #138 );
#68 = LENGTH_MEASURE_WITH_UNIT( LENGTH_MEASURE( 1.00000000000000 ), #139 );
#71 = DIMENSIONAL_EXPONENTS( 1.00000000000000, 0.000000000000000, 0.000000000000000, 0.000000000000000, 0.000000000000000, 0.000000000000000, 0.000000000000000 );
#73 = DIMENSIONAL_EXPONENTS( 0.000000000000000, 0.000000000000000, 0.000000000000000, 0.000000000000000, 0.000000000000000, 0.000000000000000, 0.000000000000000 );
#79 = SURFACE_STYLE_USAGE( .BOTH., #140 );
#80 = FACE_OUTER_BOUND( '', #141, .T. );
#81 = FACE_OUTER_BOUND( '', #142, .T. );
#82 = CYLINDRICAL_SURFACE( '', #143, 50.9166666667000 );
#83 = SURFACE_STYLE_USAGE( .BOTH., #144 );
#84 = FACE_BOUND( '', #145, .T. );
#85 = FACE_OUTER_BOUND( '', #146, .T. );
#86 = PLANE( '', #147 );
#87 = SURFACE_STYLE_USAGE( .BOTH., #148 );
#88 = FACE_OUTER_BOUND( '', #149, .T. );
#89 = FACE_OUTER_BOUND( '', #150, .T. );
#90 = CYLINDRICAL_SURFACE( '', #151, 55.0000000000000 );
#91 = SURFACE_STYLE_USAGE( .BOTH., #152 );
#92 = FACE_OUTER_BOUND( '', #153, .T. );
#93 = FACE_OUTER_BOUND( '', #154, .T. );
#94 = CYLINDRICAL_SURFACE( '', #155, 55.0000000000000 );
#95 = SURFACE_STYLE_USAGE( .BOTH., #156 );
#96 = FACE_OUTER_BOUND( '', #157, .T. );
#97 = FACE_BOUND( '', #158, .T. );
#98 = FACE_OUTER_BOUND( '', #159, .T. );
#99 = CYLINDRICAL_SURFACE( '', #160, 50.9166666667000 );
#100 = SURFACE_STYLE_USAGE( .BOTH., #161 );
#101 = FACE_BOUND( '', #162, .T. );
#102 = FACE_OUTER_BOUND( '', #163, .T. );
#103 = PLANE( '', #164 );
#104 = SURFACE_STYLE_USAGE( .BOTH., #165 );
#105 = FACE_OUTER_BOUND( '', #166, .T. );
#106 = FACE_OUTER_BOUND( '', #167, .T. );
#107 = CYLINDRICAL_SURFACE( '', #168, 67.2500000000000 );
#108 = SURFACE_STYLE_USAGE( .BOTH., #169 );
#109 = FACE_OUTER_BOUND( '', #170, .T. );
#110 = FACE_OUTER_BOUND( '', #171, .T. );
#111 = CYLINDRICAL_SURFACE( '', #172, 55.0000000000000 );
#112 = SURFACE_STYLE_USAGE( .BOTH., #173 );
#113 = FACE_OUTER_BOUND( '', #174, .T. );
#114 = FACE_BOUND( '', #175, .T. );
#115 = PLANE( '', #176 );
#116 = SURFACE_STYLE_USAGE( .BOTH., #177 );
#117 = FACE_BOUND( '', #178, .T. );
#118 = FACE_OUTER_BOUND( '', #179, .T. );
#119 = PLANE( '', #180 );
#120 = SURFACE_STYLE_USAGE( .BOTH., #181 );
#121 = FACE_BOUND( '', #182, .T. );
#122 = FACE_OUTER_BOUND( '', #183, .T. );
#123 = PLANE( '', #184 );
#124 = SURFACE_STYLE_USAGE( .BOTH., #185 );
#125 = FACE_OUTER_BOUND( '', #186, .T. );
#126 = FACE_OUTER_BOUND( '', #187, .T. );
#127 = FACE_BOUND( '', #188, .T. );
#128 = CYLINDRICAL_SURFACE( '', #189, 67.2500000000000 );
#129 = SURFACE_STYLE_USAGE( .BOTH., #190 );
#130 = FACE_BOUND( '', #191, .T. );
#131 = FACE_OUTER_BOUND( '', #192, .T. );
#132 = PLANE( '', #193 );
#133 = PRODUCT_CONTEXT( '', #23, 'mechanical' );
#134 = PRODUCT_DEFINITION_FORMATION_WITH_SPECIFIED_SOURCE( ' ', 'NONE', #62, .NOT_KNOWN. );
#135 = CLOSED_SHELL( '', ( #45, #59, #47, #61, #49, #57, #51, #39, #53, #43, #41, #55, #37 ) );
#136 = CARTESIAN_POINT( '', ( 0.000000000000000, 0.000000000000000, 0.000000000000000 ) );
#137 = DIRECTION( '', ( 0.000000000000000, 0.000000000000000, 1.00000000000000 ) );
#138 = DIRECTION( '', ( 1.00000000000000, 0.000000000000000, 0.000000000000000 ) );
#139 =  ( LENGTH_UNIT(  )NAMED_UNIT( #71 )SI_UNIT( .MILLI., .METRE. ) );
#140 = SURFACE_SIDE_STYLE( '', ( #195 ) );
#141 = EDGE_LOOP( '', ( #196, #197 ) );
#142 = EDGE_LOOP( '', ( #198 ) );
#143 = AXIS2_PLACEMENT_3D( '', #199, #200, #201 );
#144 = SURFACE_SIDE_STYLE( '', ( #202 ) );
#145 = EDGE_LOOP( '', ( #203 ) );
#146 = EDGE_LOOP( '', ( #204 ) );
#147 = AXIS2_PLACEMENT_3D( '', #205, #206, #207 );
#148 = SURFACE_SIDE_STYLE( '', ( #208 ) );
#149 = EDGE_LOOP( '', ( #209 ) );
#150 = EDGE_LOOP( '', ( #210 ) );
#151 = AXIS2_PLACEMENT_3D( '', #211, #212, #213 );
#152 = SURFACE_SIDE_STYLE( '', ( #214 ) );
#153 = EDGE_LOOP( '', ( #215 ) );
#154 = EDGE_LOOP( '', ( #216 ) );
#155 = AXIS2_PLACEMENT_3D( '', #217, #218, #219 );
#156 = SURFACE_SIDE_STYLE( '', ( #220 ) );
#157 = EDGE_LOOP( '', ( #221 ) );
#158 = EDGE_LOOP( '', ( #222, #223 ) );
#159 = EDGE_LOOP( '', ( #224 ) );
#160 = AXIS2_PLACEMENT_3D( '', #225, #226, #227 );
#161 = SURFACE_SIDE_STYLE( '', ( #228 ) );
#162 = EDGE_LOOP( '', ( #229 ) );
#163 = EDGE_LOOP( '', ( #230 ) );
#164 = AXIS2_PLACEMENT_3D( '', #231, #232, #233 );
#165 = SURFACE_SIDE_STYLE( '', ( #234 ) );
#166 = EDGE_LOOP( '', ( #235 ) );
#167 = EDGE_LOOP( '', ( #236, #237 ) );
#168 = AXIS2_PLACEMENT_3D( '', #238, #239, #240 );
#169 = SURFACE_SIDE_STYLE( '', ( #241 ) );
#170 = EDGE_LOOP( '', ( #242 ) );
#171 = EDGE_LOOP( '', ( #243 ) );
#172 = AXIS2_PLACEMENT_3D( '', #244, #245, #246 );
#173 = SURFACE_SIDE_STYLE( '', ( #247 ) );
#174 = EDGE_LOOP( '', ( #248 ) );
#175 = EDGE_LOOP( '', ( #249 ) );
#176 = AXIS2_PLACEMENT_3D( '', #250, #251, #252 );
#177 = SURFACE_SIDE_STYLE( '', ( #253 ) );
#178 = EDGE_LOOP( '', ( #254 ) );
#179 = EDGE_LOOP( '', ( #255 ) );
#180 = AXIS2_PLACEMENT_3D( '', #256, #257, #258 );
#181 = SURFACE_SIDE_STYLE( '', ( #259 ) );
#182 = EDGE_LOOP( '', ( #260 ) );
#183 = EDGE_LOOP( '', ( #261 ) );
#184 = AXIS2_PLACEMENT_3D( '', #262, #263, #264 );
#185 = SURFACE_SIDE_STYLE( '', ( #265 ) );
#186 = EDGE_LOOP( '', ( #266 ) );
#187 = EDGE_LOOP( '', ( #267 ) );
#188 = EDGE_LOOP( '', ( #268, #269 ) );
#189 = AXIS2_PLACEMENT_3D( '', #270, #271, #272 );
#190 = SURFACE_SIDE_STYLE( '', ( #273 ) );
#191 = EDGE_LOOP( '', ( #274 ) );
#192 = EDGE_LOOP( '', ( #275 ) );
#193 = AXIS2_PLACEMENT_3D( '', #276, #277, #278 );
#195 = SURFACE_STYLE_FILL_AREA( #279 );
#196 = ORIENTED_EDGE( '', *, *, #280, .F. );
#197 = ORIENTED_EDGE( '', *, *, #281, .F. );
#198 = ORIENTED_EDGE( '', *, *, #282, .F. );
#199 = CARTESIAN_POINT( '', ( -60.0000000000000, 0.000000000000000, 0.000000000000000 ) );
#200 = DIRECTION( '', ( 0.000000000000000, -0.000000000000000, 1.00000000000000 ) );
#201 = DIRECTION( '', ( -1.00000000000000, 0.000000000000000, 0.000000000000000 ) );
#202 = SURFACE_STYLE_FILL_AREA( #283 );
#203 = ORIENTED_EDGE( '', *, *, #284, .T. );
#204 = ORIENTED_EDGE( '', *, *, #285, .F. );
#205 = CARTESIAN_POINT( '', ( -120.000000000000, 0.000000000000000, 55.0000000000000 ) );
#206 = DIRECTION( '', ( -1.00000000000000, 0.000000000000000, 0.000000000000000 ) );
#207 = DIRECTION( '', ( 0.000000000000000, 0.000000000000000, 1.00000000000000 ) );
#208 = SURFACE_STYLE_FILL_AREA( #286 );
#209 = ORIENTED_EDGE( '', *, *, #287, .T. );
#210 = ORIENTED_EDGE( '', *, *, #288, .F. );
#211 = CARTESIAN_POINT( '', ( -60.0000000000000, 0.000000000000000, 0.000000000000000 ) );
#212 = DIRECTION( '', ( 0.000000000000000, -0.000000000000000, 1.00000000000000 ) );
#213 = DIRECTION( '', ( -1.00000000000000, 0.000000000000000, 0.000000000000000 ) );
#214 = SURFACE_STYLE_FILL_AREA( #289 );
#215 = ORIENTED_EDGE( '', *, *, #290, .T. );
#216 = ORIENTED_EDGE( '', *, *, #291, .F. );
#217 = CARTESIAN_POINT( '', ( 43.0000000000000, 0.000000000000000, 0.000000000000000 ) );
#218 = DIRECTION( '', ( -1.00000000000000, -0.000000000000000, 0.000000000000000 ) );
#219 = DIRECTION( '', ( -0.000000000000000, 0.000000000000000, -1.00000000000000 ) );
#220 = SURFACE_STYLE_FILL_AREA( #292 );
#221 = ORIENTED_EDGE( '', *, *, #293, .T. );
#222 = ORIENTED_EDGE( '', *, *, #280, .T. );
#223 = ORIENTED_EDGE( '', *, *, #281, .T. );
#224 = ORIENTED_EDGE( '', *, *, #284, .F. );
#225 = CARTESIAN_POINT( '', ( 43.0000000000000, 0.000000000000000, 0.000000000000000 ) );
#226 = DIRECTION( '', ( -1.00000000000000, -0.000000000000000, 0.000000000000000 ) );
#227 = DIRECTION( '', ( -0.000000000000000, 0.000000000000000, -1.00000000000000 ) );
#228 = SURFACE_STYLE_FILL_AREA( #294 );
#229 = ORIENTED_EDGE( '', *, *, #290, .F. );
#230 = ORIENTED_EDGE( '', *, *, #295, .T. );
#231 = CARTESIAN_POINT( '', ( 43.0000000000000, 0.000000000000000, 0.000000000000000 ) );
#232 = DIRECTION( '', ( 1.00000000000000, 0.000000000000000, 0.000000000000000 ) );
#233 = DIRECTION( '', ( 0.000000000000000, 0.000000000000000, -1.00000000000000 ) );
#234 = SURFACE_STYLE_FILL_AREA( #296 );
#235 = ORIENTED_EDGE( '', *, *, #297, .F. );
#236 = ORIENTED_EDGE( '', *, *, #298, .T. );
#237 = ORIENTED_EDGE( '', *, *, #299, .T. );
#238 = CARTESIAN_POINT( '', ( -60.0000000000000, 0.000000000000000, 101.500000000000 ) );
#239 = DIRECTION( '', ( 0.000000000000000, -0.000000000000000, 1.00000000000000 ) );
#240 = DIRECTION( '', ( -1.00000000000000, 0.000000000000000, 0.000000000000000 ) );
#241 = SURFACE_STYLE_FILL_AREA( #300 );
#242 = ORIENTED_EDGE( '', *, *, #285, .T. );
#243 = ORIENTED_EDGE( '', *, *, #301, .F. );
#244 = CARTESIAN_POINT( '', ( 43.0000000000000, 0.000000000000000, 0.000000000000000 ) );
#245 = DIRECTION( '', ( -1.00000000000000, -0.000000000000000, 0.000000000000000 ) );
#246 = DIRECTION( '', ( -0.000000000000000, 0.000000000000000, -1.00000000000000 ) );
#247 = SURFACE_STYLE_FILL_AREA( #302 );
#248 = ORIENTED_EDGE( '', *, *, #291, .T. );
#249 = ORIENTED_EDGE( '', *, *, #293, .F. );
#250 = CARTESIAN_POINT( '', ( 0.000000000000000, 0.000000000000000, 50.9166666666667 ) );
#251 = DIRECTION( '', ( 1.00000000000000, 0.000000000000000, -0.000000000000000 ) );
#252 = DIRECTION( '', ( -0.000000000000000, 0.000000000000000, -1.00000000000000 ) );
#253 = SURFACE_STYLE_FILL_AREA( #303 );
#254 = ORIENTED_EDGE( '', *, *, #282, .T. );
#255 = ORIENTED_EDGE( '', *, *, #287, .F. );
#256 = CARTESIAN_POINT( '', ( -5.00000000000000, 0.000000000000000, 58.5000000000000 ) );
#257 = DIRECTION( '', ( 0.000000000000000, 0.000000000000000, 1.00000000000000 ) );
#258 = DIRECTION( '', ( 1.00000000000000, 0.000000000000000, -0.000000000000000 ) );
#259 = SURFACE_STYLE_FILL_AREA( #304 );
#260 = ORIENTED_EDGE( '', *, *, #288, .T. );
#261 = ORIENTED_EDGE( '', *, *, #297, .T. );
#262 = CARTESIAN_POINT( '', ( -60.0000000000000, 0.000000000000000, 101.500000000000 ) );
#263 = DIRECTION( '', ( 0.000000000000000, 0.000000000000000, 1.00000000000000 ) );
#264 = DIRECTION( '', ( 1.00000000000000, 0.000000000000000, -0.000000000000000 ) );
#265 = SURFACE_STYLE_FILL_AREA( #305 );
#266 = ORIENTED_EDGE( '', *, *, #306, .T. );
#267 = ORIENTED_EDGE( '', *, *, #295, .F. );
#268 = ORIENTED_EDGE( '', *, *, #299, .F. );
#269 = ORIENTED_EDGE( '', *, *, #298, .F. );
#270 = CARTESIAN_POINT( '', ( 43.0000000000000, 0.000000000000000, 0.000000000000000 ) );
#271 = DIRECTION( '', ( 1.00000000000000, -0.000000000000000, -0.000000000000000 ) );
#272 = DIRECTION( '', ( 0.000000000000000, 0.000000000000000, 1.00000000000000 ) );
#273 = SURFACE_STYLE_FILL_AREA( #307 );
#274 = ORIENTED_EDGE( '', *, *, #301, .T. );
#275 = ORIENTED_EDGE( '', *, *, #306, .F. );
#276 = CARTESIAN_POINT( '', ( -163.000000000000, 0.000000000000000, 0.000000000000000 ) );
#277 = DIRECTION( '', ( 1.00000000000000, 0.000000000000000, 0.000000000000000 ) );
#278 = DIRECTION( '', ( 0.000000000000000, 0.000000000000000, -1.00000000000000 ) );
#279 = FILL_AREA_STYLE( '', ( #308 ) );
#280 = EDGE_CURVE( '', #309, #310, #311, .F. );
#281 = EDGE_CURVE( '', #310, #309, #312, .T. );
#282 = EDGE_CURVE( '', #313, #313, #314, .T. );
#283 = FILL_AREA_STYLE( '', ( #315 ) );
#284 = EDGE_CURVE( '', #316, #316, #317, .T. );
#285 = EDGE_CURVE( '', #318, #318, #319, .T. );
#286 = FILL_AREA_STYLE( '', ( #320 ) );
#287 = EDGE_CURVE( '', #321, #321, #322, .T. );
#288 = EDGE_CURVE( '', #323, #323, #324, .T. );
#289 = FILL_AREA_STYLE( '', ( #325 ) );
#290 = EDGE_CURVE( '', #326, #326, #327, .T. );
#291 = EDGE_CURVE( '', #328, #328, #329, .T. );
#292 = FILL_AREA_STYLE( '', ( #330 ) );
#293 = EDGE_CURVE( '', #331, #331, #332, .T. );
#294 = FILL_AREA_STYLE( '', ( #333 ) );
#295 = EDGE_CURVE( '', #334, #334, #335, .T. );
#296 = FILL_AREA_STYLE( '', ( #336 ) );
#297 = EDGE_CURVE( '', #337, #337, #338, .T. );
#298 = EDGE_CURVE( '', #339, #340, #341, .T. );
#299 = EDGE_CURVE( '', #340, #339, #342, .F. );
#300 = FILL_AREA_STYLE( '', ( #343 ) );
#301 = EDGE_CURVE( '', #344, #344, #345, .T. );
#302 = FILL_AREA_STYLE( '', ( #346 ) );
#303 = FILL_AREA_STYLE( '', ( #347 ) );
#304 = FILL_AREA_STYLE( '', ( #348 ) );
#305 = FILL_AREA_STYLE( '', ( #349 ) );
#306 = EDGE_CURVE( '', #350, #350, #351, .T. );
#307 = FILL_AREA_STYLE( '', ( #352 ) );
#308 = FILL_AREA_STYLE_COLOUR( '', #353 );
#309 = VERTEX_POINT( '', #354 );
#310 = VERTEX_POINT( '', #355 );
#311 = ELLIPSE( '', #356, 72.0070405508000, 50.9166666667000 );
#312 = ELLIPSE( '', #357, 72.0070405508000, 50.9166666667000 );
#313 = VERTEX_POINT( '', #358 );
#314 = CIRCLE( '', #359, 50.9166666667000 );
#315 = FILL_AREA_STYLE_COLOUR( '', #360 );
#316 = VERTEX_POINT( '', #361 );
#317 = CIRCLE( '', #362, 50.9166666667000 );
#318 = VERTEX_POINT( '', #363 );
#319 = CIRCLE( '', #364, 55.0000000000000 );
#320 = FILL_AREA_STYLE_COLOUR( '', #365 );
#321 = VERTEX_POINT( '', #366 );
#322 = CIRCLE( '', #367, 55.0000000000000 );
#323 = VERTEX_POINT( '', #368 );
#324 = CIRCLE( '', #369, 55.0000000000000 );
#325 = FILL_AREA_STYLE_COLOUR( '', #370 );
#326 = VERTEX_POINT( '', #371 );
#327 = CIRCLE( '', #372, 55.0000000000000 );
#328 = VERTEX_POINT( '', #373 );
#329 = CIRCLE( '', #374, 55.0000000000000 );
#330 = FILL_AREA_STYLE_COLOUR( '', #375 );
#331 = VERTEX_POINT( '', #376 );
#332 = CIRCLE( '', #377, 50.9166666667000 );
#333 = FILL_AREA_STYLE_COLOUR( '', #378 );
#334 = VERTEX_POINT( '', #379 );
#335 = CIRCLE( '', #380, 67.2500000000000 );
#336 = FILL_AREA_STYLE_COLOUR( '', #381 );
#337 = VERTEX_POINT( '', #382 );
#338 = CIRCLE( '', #383, 67.2500000000000 );
#339 = VERTEX_POINT( '', #384 );
#340 = VERTEX_POINT( '', #385 );
#341 = ELLIPSE( '', #386, 95.1058620696000, 67.2500000000000 );
#342 = ELLIPSE( '', #387, 95.1058620696000, 67.2500000000000 );
#343 = FILL_AREA_STYLE_COLOUR( '', #388 );
#344 = VERTEX_POINT( '', #389 );
#345 = CIRCLE( '', #390, 55.0000000000000 );
#346 = FILL_AREA_STYLE_COLOUR( '', #391 );
#347 = FILL_AREA_STYLE_COLOUR( '', #392 );
#348 = FILL_AREA_STYLE_COLOUR( '', #393 );
#349 = FILL_AREA_STYLE_COLOUR( '', #394 );
#350 = VERTEX_POINT( '', #395 );
#351 = CIRCLE( '', #396, 67.2500000000000 );
#352 = FILL_AREA_STYLE_COLOUR( '', #397 );
#353 = COLOUR_RGB( '', 0.689999997600000, 0.689999997600000, 0.689999997600000 );
#354 = CARTESIAN_POINT( '', ( -60.0000000000000, -50.9166666666667, 0.000000000000000 ) );
#355 = CARTESIAN_POINT( '', ( -60.0000000000000, 50.9166666666667, 0.000000000000000 ) );
#356 = AXIS2_PLACEMENT_3D( '', #398, #399, #400 );
#357 = AXIS2_PLACEMENT_3D( '', #401, #402, #403 );
#358 = CARTESIAN_POINT( '', ( -110.916666666667, 0.000000000000000, 58.5000000000000 ) );
#359 = AXIS2_PLACEMENT_3D( '', #404, #405, #406 );
#360 = COLOUR_RGB( '', 0.689999997600000, 0.689999997600000, 0.689999997600000 );
#361 = CARTESIAN_POINT( '', ( -120.000000000000, 0.000000000000000, -50.9166666666666 ) );
#362 = AXIS2_PLACEMENT_3D( '', #407, #408, #409 );
#363 = CARTESIAN_POINT( '', ( -120.000000000000, 0.000000000000000, -55.0000000000000 ) );
#364 = AXIS2_PLACEMENT_3D( '', #410, #411, #412 );
#365 = COLOUR_RGB( '', 0.689999997600000, 0.689999997600000, 0.689999997600000 );
#366 = CARTESIAN_POINT( '', ( -115.000000000000, 0.000000000000000, 58.5000000000000 ) );
#367 = AXIS2_PLACEMENT_3D( '', #413, #414, #415 );
#368 = CARTESIAN_POINT( '', ( -115.000000000000, 0.000000000000000, 101.500000000000 ) );
#369 = AXIS2_PLACEMENT_3D( '', #416, #417, #418 );
#370 = COLOUR_RGB( '', 0.689999997600000, 0.689999997600000, 0.689999997600000 );
#371 = CARTESIAN_POINT( '', ( 43.0000000000000, 0.000000000000000, -55.0000000000000 ) );
#372 = AXIS2_PLACEMENT_3D( '', #419, #420, #421 );
#373 = CARTESIAN_POINT( '', ( 0.000000000000000, 0.000000000000000, -55.0000000000000 ) );
#374 = AXIS2_PLACEMENT_3D( '', #422, #423, #424 );
#375 = COLOUR_RGB( '', 0.689999997600000, 0.689999997600000, 0.689999997600000 );
#376 = CARTESIAN_POINT( '', ( 0.000000000000000, 0.000000000000000, -50.9166666666667 ) );
#377 = AXIS2_PLACEMENT_3D( '', #425, #426, #427 );
#378 = COLOUR_RGB( '', 0.689999997600000, 0.689999997600000, 0.689999997600000 );
#379 = CARTESIAN_POINT( '', ( 43.0000000000000, 67.2500000000000, 0.000000000000000 ) );
#380 = AXIS2_PLACEMENT_3D( '', #428, #429, #430 );
#381 = COLOUR_RGB( '', 0.689999997600000, 0.689999997600000, 0.689999997600000 );
#382 = CARTESIAN_POINT( '', ( 7.25000000000001, 0.000000000000000, 101.500000000000 ) );
#383 = AXIS2_PLACEMENT_3D( '', #431, #432, #433 );
#384 = CARTESIAN_POINT( '', ( -60.0000000000000, -67.2500000000000, 0.000000000000000 ) );
#385 = CARTESIAN_POINT( '', ( -60.0000000000000, 67.2500000000000, 0.000000000000000 ) );
#386 = AXIS2_PLACEMENT_3D( '', #434, #435, #436 );
#387 = AXIS2_PLACEMENT_3D( '', #437, #438, #439 );
#388 = COLOUR_RGB( '', 0.689999997600000, 0.689999997600000, 0.689999997600000 );
#389 = CARTESIAN_POINT( '', ( -163.000000000000, 0.000000000000000, -55.0000000000000 ) );
#390 = AXIS2_PLACEMENT_3D( '', #440, #441, #442 );
#391 = COLOUR_RGB( '', 0.689999997600000, 0.689999997600000, 0.689999997600000 );
#392 = COLOUR_RGB( '', 0.689999997600000, 0.689999997600000, 0.689999997600000 );
#393 = COLOUR_RGB( '', 0.689999997600000, 0.689999997600000, 0.689999997600000 );
#394 = COLOUR_RGB( '', 0.689999997600000, 0.689999997600000, 0.689999997600000 );
#395 = CARTESIAN_POINT( '', ( -163.000000000000, 67.2500000000000, 0.000000000000000 ) );
#396 = AXIS2_PLACEMENT_3D( '', #443, #444, #445 );
#397 = COLOUR_RGB( '', 0.689999997600000, 0.689999997600000, 0.689999997600000 );
#398 = CARTESIAN_POINT( '', ( -60.0000000000000, 0.000000000000000, 0.000000000000000 ) );
#399 = DIRECTION( '', ( 0.707106781186548, 0.000000000000000, -0.707106781186548 ) );
#400 = DIRECTION( '', ( 0.707106781186547, 0.000000000000000, 0.707106781186547 ) );
#401 = CARTESIAN_POINT( '', ( -60.0000000000000, 0.000000000000000, 0.000000000000000 ) );
#402 = DIRECTION( '', ( 0.707106781186548, 0.000000000000000, 0.707106781186548 ) );
#403 = DIRECTION( '', ( 0.707106781186547, -0.000000000000000, -0.707106781186547 ) );
#404 = CARTESIAN_POINT( '', ( -60.0000000000000, 0.000000000000000, 58.5000000000000 ) );
#405 = DIRECTION( '', ( -0.000000000000000, 0.000000000000000, -1.00000000000000 ) );
#406 = DIRECTION( '', ( -1.00000000000000, 0.000000000000000, 0.000000000000000 ) );
#407 = CARTESIAN_POINT( '', ( -120.000000000000, 0.000000000000000, 0.000000000000000 ) );
#408 = DIRECTION( '', ( 1.00000000000000, 0.000000000000000, -0.000000000000000 ) );
#409 = DIRECTION( '', ( -0.000000000000000, 0.000000000000000, -1.00000000000000 ) );
#410 = CARTESIAN_POINT( '', ( -120.000000000000, 0.000000000000000, 0.000000000000000 ) );
#411 = DIRECTION( '', ( 1.00000000000000, 0.000000000000000, -0.000000000000000 ) );
#412 = DIRECTION( '', ( -0.000000000000000, 0.000000000000000, -1.00000000000000 ) );
#413 = CARTESIAN_POINT( '', ( -60.0000000000000, 0.000000000000000, 58.5000000000000 ) );
#414 = DIRECTION( '', ( -0.000000000000000, 0.000000000000000, -1.00000000000000 ) );
#415 = DIRECTION( '', ( -1.00000000000000, 0.000000000000000, 0.000000000000000 ) );
#416 = CARTESIAN_POINT( '', ( -60.0000000000000, 0.000000000000000, 101.500000000000 ) );
#417 = DIRECTION( '', ( -0.000000000000000, 0.000000000000000, -1.00000000000000 ) );
#418 = DIRECTION( '', ( -1.00000000000000, 0.000000000000000, 0.000000000000000 ) );
#419 = CARTESIAN_POINT( '', ( 43.0000000000000, 0.000000000000000, 0.000000000000000 ) );
#420 = DIRECTION( '', ( 1.00000000000000, 0.000000000000000, -0.000000000000000 ) );
#421 = DIRECTION( '', ( -0.000000000000000, 0.000000000000000, -1.00000000000000 ) );
#422 = CARTESIAN_POINT( '', ( 0.000000000000000, 0.000000000000000, 0.000000000000000 ) );
#423 = DIRECTION( '', ( 1.00000000000000, 0.000000000000000, -0.000000000000000 ) );
#424 = DIRECTION( '', ( -0.000000000000000, 0.000000000000000, -1.00000000000000 ) );
#425 = CARTESIAN_POINT( '', ( 0.000000000000000, 0.000000000000000, 0.000000000000000 ) );
#426 = DIRECTION( '', ( 1.00000000000000, 0.000000000000000, -0.000000000000000 ) );
#427 = DIRECTION( '', ( -0.000000000000000, 0.000000000000000, -1.00000000000000 ) );
#428 = CARTESIAN_POINT( '', ( 43.0000000000000, 0.000000000000000, 0.000000000000000 ) );
#429 = DIRECTION( '', ( 1.00000000000000, 0.000000000000000, 0.000000000000000 ) );
#430 = DIRECTION( '', ( 0.000000000000000, 1.00000000000000, 0.000000000000000 ) );
#431 = CARTESIAN_POINT( '', ( -60.0000000000000, 0.000000000000000, 101.500000000000 ) );
#432 = DIRECTION( '', ( 0.000000000000000, 0.000000000000000, 1.00000000000000 ) );
#433 = DIRECTION( '', ( 1.00000000000000, 0.000000000000000, 0.000000000000000 ) );
#434 = CARTESIAN_POINT( '', ( -60.0000000000000, 0.000000000000000, 1.38777878078145E-14 ) );
#435 = DIRECTION( '', ( -0.707106781186548, 0.000000000000000, 0.707106781186547 ) );
#436 = DIRECTION( '', ( -0.707106781186547, -0.000000000000000, -0.707106781186548 ) );
#437 = CARTESIAN_POINT( '', ( -60.0000000000000, 0.000000000000000, 1.38777878078145E-14 ) );
#438 = DIRECTION( '', ( -0.707106781186548, 0.000000000000000, -0.707106781186547 ) );
#439 = DIRECTION( '', ( -0.707106781186547, 0.000000000000000, 0.707106781186548 ) );
#440 = CARTESIAN_POINT( '', ( -163.000000000000, 0.000000000000000, 0.000000000000000 ) );
#441 = DIRECTION( '', ( 1.00000000000000, 0.000000000000000, -0.000000000000000 ) );
#442 = DIRECTION( '', ( -0.000000000000000, 0.000000000000000, -1.00000000000000 ) );
#443 = CARTESIAN_POINT( '', ( -163.000000000000, 0.000000000000000, 0.000000000000000 ) );
#444 = DIRECTION( '', ( 1.00000000000000, 0.000000000000000, 0.000000000000000 ) );
#445 = DIRECTION( '', ( 0.000000000000000, 1.00000000000000, 0.000000000000000 ) );
ENDSEC;
END-ISO-10303-21;
